  0
SECTION
  2
HEADER
  9
$ACADVER
  1
AC1015
  9
$ACADMAINTVER
 70
     6
  9
$DWGCODEPAGE
  3
ANSI_1254
  9
$INSBASE
 10
0.0
 20
0.0
 30
0.0
  9
$EXTMIN
 10
0.0
 20
0.0
 30
0.0
  9
$EXTMAX
 10
279.4
 20
215.9
 30
0.0
  9
$LIMMIN
 10
0.0
 20
0.0
  9
$LIMMAX
 10
279.4
 20
215.9
  9
$ORTHOMODE
 70
     0
  9
$REGENMODE
 70
     1
  9
$FILLMODE
 70
     1
  9
$QTEXTMODE
 70
     0
  9
$MIRRTEXT
 70
     1
  9
$LTSCALE
 40
1.0
  9
$ATTMODE
 70
     1
  9
$TEXTSIZE
 40
3.5
  9
$TRACEWID
 40
1.0
  9
$TEXTSTYLE
  7
Standard
  9
$CLAYER
  8
0
  9
$CELTYPE
  6
ByLayer
  9
$CECOLOR
 62
   256
  9
$CELTSCALE
 40
1.0
  9
$DISPSILH
 70
     0
  9
$DIMSCALE
 40
1.0
  9
$DIMASZ
 40
3.5
  9
$DIMEXO
 40
1.0
  9
$DIMDLI
 40
3.75
  9
$DIMRND
 40
0.0
  9
$DIMDLE
 40
0.0
  9
$DIMEXE
 40
1.0
  9
$DIMTP
 40
0.0
  9
$DIMTM
 40
0.0
  9
$DIMTXT
 40
3.5
  9
$DIMCEN
 40
2.5
  9
$DIMTSZ
 40
0.0
  9
$DIMTOL
 70
     0
  9
$DIMLIM
 70
     0
  9
$DIMTIH
 70
     1
  9
$DIMTOH
 70
     1
  9
$DIMSE1
 70
     0
  9
$DIMSE2
 70
     0
  9
$DIMTAD
 70
     1
  9
$DIMZIN
 70
     0
  9
$DIMBLK
  1

  9
$DIMASO
 70
     1
  9
$DIMSHO
 70
     1
  9
$DIMPOST
  1

  9
$DIMAPOST
  1

  9
$DIMALT
 70
     0
  9
$DIMALTD
 70
     3
  9
$DIMALTF
 40
0.0393700787
  9
$DIMLFAC
 40
1.0
  9
$DIMTOFL
 70
     1
  9
$DIMTVP
 40
0.0
  9
$DIMTIX
 70
     0
  9
$DIMSOXD
 70
     0
  9
$DIMSAH
 70
     0
  9
$DIMBLK1
  1

  9
$DIMBLK2
  1

  9
$DIMSTYLE
  2
ISO-25
  9
$DIMCLRD
 70
     0
  9
$DIMCLRE
 70
     0
  9
$DIMCLRT
 70
     0
  9
$DIMTFAC
 40
1.0
  9
$DIMGAP
 40
1.524
  9
$DIMJUST
 70
     0
  9
$DIMSD1
 70
     0
  9
$DIMSD2
 70
     0
  9
$DIMTOLJ
 70
     0
  9
$DIMTZIN
 70
     0
  9
$DIMALTZ
 70
     0
  9
$DIMALTTZ
 70
     0
  9
$DIMUPT
 70
     0
  9
$DIMDEC
 70
     2
  9
$DIMTDEC
 70
     2
  9
$DIMALTU
 70
     2
  9
$DIMALTTD
 70
     3
  9
$DIMTXSTY
  7
Standard
  9
$DIMAUNIT
 70
     0
  9
$DIMADEC
 70
     2
  9
$DIMALTRND
 40
0.0
  9
$DIMAZIN
 70
     0
  9
$DIMDSEP
 70
    44
  9
$DIMATFIT
 70
     3
  9
$DIMFRAC
 70
     0
  9
$DIMLDRBLK
  1

  9
$DIMLUNIT
 70
     2
  9
$DIMLWD
 70
    -2
  9
$DIMLWE
 70
    -2
  9
$DIMTMOVE
 70
     0
  9
$LUNITS
 70
     2
  9
$LUPREC
 70
     2
  9
$SKETCHINC
 40
1.0
  9
$FILLETRAD
 40
10.0
  9
$AUNITS
 70
     0
  9
$AUPREC
 70
     2
  9
$MENU
  1
.
  9
$ELEVATION
 40
0.0
  9
$PELEVATION
 40
0.0
  9
$THICKNESS
 40
0.0
  9
$LIMCHECK
 70
     0
  9
$CHAMFERA
 40
0.0
  9
$CHAMFERB
 40
0.0
  9
$CHAMFERC
 40
0.0
  9
$CHAMFERD
 40
0.0
  9
$SKPOLY
 70
     0
  9
$TDCREATE
 40
2460665.614639271
  9
$TDUCREATE
 40
2460665.489639271
  9
$TDUPDATE
 40
2460665.614639456
  9
$TDUUPDATE
 40
2460665.489639456
  9
$TDINDWG
 40
0.0000000116
  9
$TDUSRTIMER
 40
0.0000000116
  9
$USRTIMER
 70
     1
  9
$ANGBASE
 50
0.0
  9
$ANGDIR
 70
     0
  9
$PDMODE
 70
     0
  9
$PDSIZE
 40
-1.0
  9
$PLINEWID
 40
0.0
  9
$SPLFRAME
 70
     0
  9
$SPLINETYPE
 70
     6
  9
$SPLINESEGS
 70
     8
  9
$HANDSEED
  5
121
  9
$SURFTAB1
 70
     6
  9
$SURFTAB2
 70
     6
  9
$SURFTYPE
 70
     6
  9
$SURFU
 70
     6
  9
$SURFV
 70
     6
  9
$UCSBASE
  2

  9
$UCSNAME
  2

  9
$UCSORG
 10
0.0
 20
0.0
 30
0.0
  9
$UCSXDIR
 10
1.0
 20
0.0
 30
0.0
  9
$UCSYDIR
 10
0.0
 20
1.0
 30
0.0
  9
$UCSORTHOREF
  2

  9
$UCSORTHOVIEW
 70
     0
  9
$UCSORGTOP
 10
0.0
 20
0.0
 30
0.0
  9
$UCSORGBOTTOM
 10
0.0
 20
0.0
 30
0.0
  9
$UCSORGLEFT
 10
0.0
 20
0.0
 30
0.0
  9
$UCSORGRIGHT
 10
0.0
 20
0.0
 30
0.0
  9
$UCSORGFRONT
 10
0.0
 20
0.0
 30
0.0
  9
$UCSORGBACK
 10
0.0
 20
0.0
 30
0.0
  9
$PUCSBASE
  2

  9
$PUCSNAME
  2

  9
$PUCSORG
 10
0.0
 20
0.0
 30
0.0
  9
$PUCSXDIR
 10
1.0
 20
0.0
 30
0.0
  9
$PUCSYDIR
 10
0.0
 20
1.0
 30
0.0
  9
$PUCSORTHOREF
  2

  9
$PUCSORTHOVIEW
 70
     0
  9
$PUCSORGTOP
 10
0.0
 20
0.0
 30
0.0
  9
$PUCSORGBOTTOM
 10
0.0
 20
0.0
 30
0.0
  9
$PUCSORGLEFT
 10
0.0
 20
0.0
 30
0.0
  9
$PUCSORGRIGHT
 10
0.0
 20
0.0
 30
0.0
  9
$PUCSORGFRONT
 10
0.0
 20
0.0
 30
0.0
  9
$PUCSORGBACK
 10
0.0
 20
0.0
 30
0.0
  9
$USERI1
 70
     0
  9
$USERI2
 70
     0
  9
$USERI3
 70
     0
  9
$USERI4
 70
     0
  9
$USERI5
 70
     0
  9
$USERR1
 40
0.0
  9
$USERR2
 40
0.0
  9
$USERR3
 40
0.0
  9
$USERR4
 40
0.0
  9
$USERR5
 40
0.0
  9
$WORLDVIEW
 70
     1
  9
$SHADEDGE
 70
     3
  9
$SHADEDIF
 70
    70
  9
$TILEMODE
 70
     1
  9
$MAXACTVP
 70
    64
  9
$PINSBASE
 10
0.0
 20
0.0
 30
0.0
  9
$PLIMCHECK
 70
     0
  9
$PEXTMIN
 10
1.0000000000E+20
 20
1.0000000000E+20
 30
1.0000000000E+20
  9
$PEXTMAX
 10
-1.0000000000E+20
 20
-1.0000000000E+20
 30
-1.0000000000E+20
  9
$PLIMMIN
 10
0.0
 20
0.0
  9
$PLIMMAX
 10
420.0
 20
297.0
  9
$UNITMODE
 70
     0
  9
$VISRETAIN
 70
     1
  9
$PLINEGEN
 70
     0
  9
$PSLTSCALE
 70
     1
  9
$TREEDEPTH
 70
  3020
  9
$CMLSTYLE
  2
Standard
  9
$CMLJUST
 70
     0
  9
$CMLSCALE
 40
20.0
  9
$PROXYGRAPHICS
 70
     1
  9
$MEASUREMENT
 70
     1
  9
$CELWEIGHT
370
    -1
  9
$ENDCAPS
280
     0
  9
$JOINSTYLE
280
     0
  9
$LWDISPLAY
290
     1
  9
$INSUNITS
 70
     4
  9
$HYPERLINKBASE
  1

  9
$STYLESHEET
  1

  9
$XEDIT
290
     1
  9
$CEPSNTYPE
380
     0
  9
$PSTYLEMODE
290
     1
  9
$FINGERPRINTGUID
  2
{28932286-34fc-4ea8-ad14-b5ac9f9b414b}
  9
$VERSIONGUID
  2
{FAEB1C32-E019-11D5-929B-00C0DF256EC4}
  9
$EXTNAMES
290
     1
  9
$PSVPSCALE
 40
0.0
  9
$OLESTARTUP
290
     0
  0
ENDSEC
  0
SECTION
  2
CLASSES
  0
CLASS
  1
ACDBDICTIONARYWDFLT
  2
AcDbDictionaryWithDefault
  3
ObjectDBX Classes
 90
        0
280
     0
281
     0
  0
CLASS
  1
VISUALSTYLE
  2
AcDbVisualStyle
  3
ObjectDBX Classes
 90
     4095
280
     0
281
     0
  0
CLASS
  1
MATERIAL
  2
AcDbMaterial
  3
ObjectDBX Classes
 90
     1153
280
     0
281
     0
  0
CLASS
  1
SCALE
  2
AcDbScale
  3
ObjectDBX Classes
 90
     1153
280
     0
281
     0
  0
CLASS
  1
TABLESTYLE
  2
AcDbTableStyle
  3
ObjectDBX Classes
 90
     4095
280
     0
281
     0
  0
CLASS
  1
MLEADERSTYLE
  2
AcDbMLeaderStyle
  3
ACDB_MLEADERSTYLE_CLASS
 90
     4095
280
     0
281
     0
  0
CLASS
  1
SUN
  2
AcDbSun
  3
SCENEOE
 90
     1153
280
     0
281
     0
  0
CLASS
  1
ACDBPLACEHOLDER
  2
AcDbPlaceHolder
  3
ObjectDBX Classes
 90
        0
280
     0
281
     0
  0
CLASS
  1
LAYOUT
  2
AcDbLayout
  3
ObjectDBX Classes
 90
        0
280
     0
281
     0
  0
ENDSEC
  0
SECTION
  2
TABLES
  0
TABLE
  2
VPORT
  5
8
330
0
100
AcDbSymbolTable
 70
     1
  0
VPORT
  5
29
330
8
100
AcDbSymbolTableRecord
100
AcDbViewportTableRecord
  2
*Active
 70
     0
 10
0.0
 20
0.0
 11
1.0
 21
1.0
 12
139.7
 22
107.95
 13
0.0
 23
0.0
 14
10.0
 24
10.0
 15
10.0
 25
10.0
 16
0.0
 26
0.0
 36
1.0
 17
0.0
 27
0.0
 37
0.0
 40
215.9
 41
1.2941176471
 42
50.0
 43
0.0
 44
0.0
 50
0.0
 51
0.0
 71
     0
 72
  2000
 73
     1
 74
     3
 75
     0
 76
     0
 77
     0
 78
     0
281
     0
 65
     1
110
0.0
120
0.0
130
0.0
111
1.0
121
0.0
131
0.0
112
0.0
122
1.0
132
0.0
 79
     0
146
0.0
  0
ENDTAB
  0
TABLE
  2
LTYPE
  5
5
330
0
100
AcDbSymbolTable
 70
     6
  0
LTYPE
  5
14
330
5
100
AcDbSymbolTableRecord
100
AcDbLinetypeTableRecord
  2
ByBlock
 70
     0
  3

 72
    65
 73
     0
 40
0.0
  0
LTYPE
  5
15
330
5
100
AcDbSymbolTableRecord
100
AcDbLinetypeTableRecord
  2
ByLayer
 70
     0
  3

 72
    65
 73
     0
 40
0.0
  0
LTYPE
  5
16
330
5
100
AcDbSymbolTableRecord
100
AcDbLinetypeTableRecord
  2
Continuous
 70
     0
  3
Solid line
 72
    65
 73
     0
 40
0.0
  0
LTYPE
  5
6E
330
5
100
AcDbSymbolTableRecord
100
AcDbLinetypeTableRecord
  2
HIDDEN
 70
     0
  3
Hidden __ __ __ __ __ __ __ __ __ __ __ __ __ __
 72
    65
 73
     2
 40
1.905
 49
1.27
 74
     0
 49
-0.635
 74
     0
  0
LTYPE
  5
6F
330
5
100
AcDbSymbolTableRecord
100
AcDbLinetypeTableRecord
  2
PHANTOM
 70
     0
  3
Phantom ______  __  __  ______  __  __  ______
 72
    65
 73
     6
 40
12.7
 49
6.35
 74
     0
 49
-1.27
 74
     0
 49
1.27
 74
     0
 49
-1.27
 74
     0
 49
1.27
 74
     0
 49
-1.27
 74
     0
  0
LTYPE
  5
70
330
5
100
AcDbSymbolTableRecord
100
AcDbLinetypeTableRecord
  2
CENTER
 70
     0
  3
Center ____ _ ____ _ ____ _ ____ _ ____ _ ____
 72
    65
 73
     4
 40
10.16
 49
6.35
 74
     0
 49
-1.27
 74
     0
 49
1.27
 74
     0
 49
-1.27
 74
     0
  0
LTYPE
  5
71
330
5
100
AcDbSymbolTableRecord
100
AcDbLinetypeTableRecord
  2
CENTERX2
 70
     0
  3
Center (2x) ________  __  ________  __  _____
 72
    65
 73
     4
 40
20.32
 49
12.7
 74
     0
 49
-2.54
 74
     0
 49
2.54
 74
     0
 49
-2.54
 74
     0
  0
LTYPE
  5
72
330
5
100
AcDbSymbolTableRecord
100
AcDbLinetypeTableRecord
  2
DOT2
 70
     0
  3
Dot (.5x) ........................................
 72
    65
 73
     2
 40
0.635
 49
0.0
 74
     0
 49
-0.635
 74
     0
  0
ENDTAB
  0
TABLE
  2
LAYER
  5
2
330
0
100
AcDbSymbolTable
 70
    17
  0
LAYER
  5
10
330
2
100
AcDbSymbolTableRecord
100
AcDbLayerTableRecord
  2
0
 70
     0
 62
     7
  6
Continuous
370
    -3
390
F
  0
LAYER
  5
73
330
2
100
AcDbSymbolTableRecord
100
AcDbLayerTableRecord
  2
FORMAT
 70
     0
 62
     7
  6
Continuous
370
    -3
390
F
  0
LAYER
  5
74
330
2
100
AcDbSymbolTableRecord
100
AcDbLayerTableRecord
  2
YARDIMCI_GEOMETRI
 70
     0
 62
    -6
  6
Continuous
290
     0
370
    -3
390
F
  0
LAYER
  5
75
330
2
100
AcDbSymbolTableRecord
100
AcDbLayerTableRecord
  2
SAYFA_CERCEVESI
 70
     0
 62
     7
  6
Continuous
370
    25
390
F
  0
LAYER
  5
76
330
2
100
AcDbSymbolTableRecord
100
AcDbLayerTableRecord
  2
ANTET
 70
     0
 62
     7
  6
Continuous
370
    -3
390
F
  0
LAYER
  5
77
330
2
100
AcDbSymbolTableRecord
100
AcDbLayerTableRecord
  2
OLCU
 70
     0
 62
   150
  6
Continuous
370
    -3
390
F
  0
LAYER
  5
78
330
2
100
AcDbSymbolTableRecord
100
AcDbLayerTableRecord
  2
METIN
 70
     0
 62
    96
  6
Continuous
370
    -3
390
F
  0
LAYER
  5
79
330
2
100
AcDbSymbolTableRecord
100
AcDbLayerTableRecord
  2
BALON
 70
     0
 62
     5
  6
Continuous
370
    -3
390
F
  0
LAYER
  5
7A
330
2
100
AcDbSymbolTableRecord
100
AcDbLayerTableRecord
  2
VURGU
 70
     0
 62
     7
  6
Continuous
370
    -3
390
F
  0
LAYER
  5
7B
330
2
100
AcDbSymbolTableRecord
100
AcDbLayerTableRecord
  2
SILIK
 70
     0
 62
     7
  6
Continuous
370
    -3
390
F
  0
LAYER
  5
7C
330
2
100
AcDbSymbolTableRecord
100
AcDbLayerTableRecord
  2
MODEL
 70
     0
 62
     7
  6
Continuous
370
    -3
390
F
  0
LAYER
  5
7D
330
2
100
AcDbSymbolTableRecord
100
AcDbLayerTableRecord
  2
DETAYLANDıRMA
 70
     0
 62
   190
  6
Continuous
370
    -3
390
F
  0
LAYER
  5
7E
330
2
100
AcDbSymbolTableRecord
100
AcDbLayerTableRecord
  2
TOLERANS
 70
     0
 62
   230
  6
Continuous
370
    -3
390
F
  0
LAYER
  5
7F
330
2
100
AcDbSymbolTableRecord
100
AcDbLayerTableRecord
  2
MERKEZ_CIZGILERI
 70
     0
 62
    30
  6
Continuous
370
    -3
390
F
  0
LAYER
  5
80
330
2
100
AcDbSymbolTableRecord
100
AcDbLayerTableRecord
  2
KESIT-DETAY_CIZGILERI
 70
     0
 62
     7
  6
Continuous
370
    -3
390
F
  0
LAYER
  5
81
330
2
100
AcDbSymbolTableRecord
100
AcDbLayerTableRecord
  2
\U+041E\U+0421\U+0415\U+0412\U+042B\U+0415
 70
     0
 62
     7
  6
Continuous
370
    -3
390
F
  0
LAYER
  5
82
330
2
100
AcDbSymbolTableRecord
100
AcDbLayerTableRecord
  2
\U+0412\U+041E\U+0414\U+042F\U+041D\U+042B\U+0415_\U+0417\U+041D\U+0410\U+041A\U+0418
 70
     0
 62
    11
  6
Continuous
370
    -3
390
F
  0
ENDTAB
  0
TABLE
  2
STYLE
  5
3
330
0
100
AcDbSymbolTable
 70
     1
  0
STYLE
  5
11
330
3
100
AcDbSymbolTableRecord
100
AcDbTextStyleTableRecord
  2
Standard
 70
     0
 40
0.0
 41
1.0
 50
0.0
 71
     0
 42
3.5
  3
txt
  4

  0
ENDTAB
  0
TABLE
  2
VIEW
  5
6
330
0
100
AcDbSymbolTable
 70
     0
  0
ENDTAB
  0
TABLE
  2
UCS
  5
7
330
0
100
AcDbSymbolTable
 70
     0
  0
ENDTAB
  0
TABLE
  2
APPID
  5
9
330
0
100
AcDbSymbolTable
 70
     1
  0
APPID
  5
12
330
9
100
AcDbSymbolTableRecord
100
AcDbRegAppTableRecord
  2
ACAD
 70
     0
  0
ENDTAB
  0
TABLE
  2
DIMSTYLE
  5
A
330
0
100
AcDbSymbolTable
 70
     1
100
AcDbDimStyleTable
  0
DIMSTYLE
105
27
330
A
100
AcDbSymbolTableRecord
100
AcDbDimStyleTableRecord
  2
ISO-25
 70
     0
 41
2.5
 42
0.625
 43
3.75
 44
1.25
 73
     0
 74
     0
 77
     1
 78
     8
140
2.5
141
2.5
143
0.0393700787
147
0.625
171
     3
172
     1
178
     0
271
     2
272
     2
274
     3
278
    44
283
     0
284
     8
340
11
  0
ENDTAB
  0
TABLE
  2
BLOCK_RECORD
  5
1
330
0
100
AcDbSymbolTable
 70
     5
  0
BLOCK_RECORD
  5
1F
330
1
100
AcDbSymbolTableRecord
100
AcDbBlockTableRecord
  2
*Model_Space
340
22
  0
BLOCK_RECORD
  5
1B
330
1
100
AcDbSymbolTableRecord
100
AcDbBlockTableRecord
  2
*Paper_Space
340
1E
  0
BLOCK_RECORD
  5
23
330
1
100
AcDbSymbolTableRecord
100
AcDbBlockTableRecord
  2
*Paper_Space0
340
26
  0
BLOCK_RECORD
  5
A5
330
1
100
AcDbSymbolTableRecord
100
AcDbBlockTableRecord
  2
SW_CENTERMARKSYMBOL_0
340
0
102
{BLKREFS
331
B0
102
}
  0
BLOCK_RECORD
  5
C1
330
1
100
AcDbSymbolTableRecord
100
AcDbBlockTableRecord
  2
SW_CENTERMARKSYMBOL_1
340
0
102
{BLKREFS
331
CC
102
}
  0
BLOCK_RECORD
  5
DE
330
1
100
AcDbSymbolTableRecord
100
AcDbBlockTableRecord
  2
SW_CENTERMARKSYMBOL_2
340
0
102
{BLKREFS
331
E9
102
}
  0
BLOCK_RECORD
  5
F9
330
1
100
AcDbSymbolTableRecord
100
AcDbBlockTableRecord
  2
SW_CENTERMARKSYMBOL_3
340
0
102
{BLKREFS
331
104
102
}
  0
ENDTAB
  0
ENDSEC
  0
SECTION
  2
BLOCKS
  0
BLOCK
  5
20
330
1F
100
AcDbEntity
  8
0
100
AcDbBlockBegin
  2
*Model_Space
 70
     0
 10
0.0
 20
0.0
 30
0.0
  3
*Model_Space
  1

  0
ENDBLK
  5
21
330
1F
100
AcDbEntity
  8
0
100
AcDbBlockEnd
  0
BLOCK
  5
1C
330
1B
100
AcDbEntity
 67
     1
  8
0
100
AcDbBlockBegin
  2
*Paper_Space
 70
     0
 10
0.0
 20
0.0
 30
0.0
  3
*Paper_Space
  1

  0
ENDBLK
  5
1D
330
1B
100
AcDbEntity
 67
     1
  8
0
100
AcDbBlockEnd
  0
BLOCK
  5
24
330
23
100
AcDbEntity
  8
0
100
AcDbBlockBegin
  2
*Paper_Space0
 70
     0
 10
0.0
 20
0.0
 30
0.0
  3
*Paper_Space0
  1

  0
ENDBLK
  5
25
330
23
100
AcDbEntity
  8
0
100
AcDbBlockEnd
  0
BLOCK
  5
A6
330
A5
100
AcDbEntity
  8
0
100
AcDbBlockBegin
  2
SW_CENTERMARKSYMBOL_0
 70
     0
 10
0.0
 20
0.0
 30
0.0
  3
SW_CENTERMARKSYMBOL_0
  1

  0
LINE
  5
A8
330
A5
100
AcDbEntity
  8
FORMAT
 62
     0
100
AcDbLine
 10
0.0
 20
0.0
 30
0.0
 11
0.0
 21
2.5
 31
0.0
  0
LINE
  5
A9
330
A5
100
AcDbEntity
  8
FORMAT
 62
     0
100
AcDbLine
 10
0.0
 20
0.0
 30
0.0
 11
-2.5
 21
0.0
 31
0.0
  0
LINE
  5
AA
330
A5
100
AcDbEntity
  8
FORMAT
 62
     0
100
AcDbLine
 10
0.0
 20
0.0
 30
0.0
 11
0.0
 21
-2.5
 31
0.0
  0
LINE
  5
AB
330
A5
100
AcDbEntity
  8
FORMAT
 62
     0
100
AcDbLine
 10
0.0
 20
0.0
 30
0.0
 11
2.5
 21
0.0
 31
0.0
  0
LINE
  5
AC
330
A5
100
AcDbEntity
  8
FORMAT
 62
     0
100
AcDbLine
 10
0.0
 20
5.0
 30
0.0
 11
0.0
 21
50.0
 31
0.0
  0
LINE
  5
AD
330
A5
100
AcDbEntity
  8
FORMAT
 62
     0
100
AcDbLine
 10
-5.0
 20
0.0
 30
0.0
 11
-50.0
 21
0.0
 31
0.0
  0
LINE
  5
AE
330
A5
100
AcDbEntity
  8
FORMAT
 62
     0
100
AcDbLine
 10
0.0
 20
-5.0
 30
0.0
 11
0.0
 21
-50.0
 31
0.0
  0
LINE
  5
AF
330
A5
100
AcDbEntity
  8
FORMAT
 62
     0
100
AcDbLine
 10
5.0
 20
0.0
 30
0.0
 11
50.0
 21
0.0
 31
0.0
  0
ENDBLK
  5
A7
330
A5
100
AcDbEntity
  8
0
100
AcDbBlockEnd
  0
BLOCK
  5
C2
330
C1
100
AcDbEntity
  8
0
100
AcDbBlockBegin
  2
SW_CENTERMARKSYMBOL_1
 70
     0
 10
0.0
 20
0.0
 30
0.0
  3
SW_CENTERMARKSYMBOL_1
  1

  0
LINE
  5
C4
330
C1
100
AcDbEntity
  8
FORMAT
 62
     0
100
AcDbLine
 10
0.0
 20
0.0
 30
0.0
 11
0.0
 21
2.5
 31
0.0
  0
LINE
  5
C5
330
C1
100
AcDbEntity
  8
FORMAT
 62
     0
100
AcDbLine
 10
0.0
 20
0.0
 30
0.0
 11
-2.5
 21
0.0
 31
0.0
  0
LINE
  5
C6
330
C1
100
AcDbEntity
  8
FORMAT
 62
     0
100
AcDbLine
 10
0.0
 20
0.0
 30
0.0
 11
0.0
 21
-2.5
 31
0.0
  0
LINE
  5
C7
330
C1
100
AcDbEntity
  8
FORMAT
 62
     0
100
AcDbLine
 10
0.0
 20
0.0
 30
0.0
 11
2.5
 21
0.0
 31
0.0
  0
LINE
  5
C8
330
C1
100
AcDbEntity
  8
FORMAT
 62
     0
100
AcDbLine
 10
0.0
 20
5.0
 30
0.0
 11
0.0
 21
50.0
 31
0.0
  0
LINE
  5
C9
330
C1
100
AcDbEntity
  8
FORMAT
 62
     0
100
AcDbLine
 10
-5.0
 20
0.0
 30
0.0
 11
-50.0
 21
0.0
 31
0.0
  0
LINE
  5
CA
330
C1
100
AcDbEntity
  8
FORMAT
 62
     0
100
AcDbLine
 10
0.0
 20
-5.0
 30
0.0
 11
0.0
 21
-50.0
 31
0.0
  0
LINE
  5
CB
330
C1
100
AcDbEntity
  8
FORMAT
 62
     0
100
AcDbLine
 10
5.0
 20
0.0
 30
0.0
 11
50.0
 21
0.0
 31
0.0
  0
ENDBLK
  5
C3
330
C1
100
AcDbEntity
  8
0
100
AcDbBlockEnd
  0
BLOCK
  5
DF
330
DE
100
AcDbEntity
  8
0
100
AcDbBlockBegin
  2
SW_CENTERMARKSYMBOL_2
 70
     0
 10
0.0
 20
0.0
 30
0.0
  3
SW_CENTERMARKSYMBOL_2
  1

  0
LINE
  5
E1
330
DE
100
AcDbEntity
  8
FORMAT
 62
     0
100
AcDbLine
 10
0.0
 20
0.0
 30
0.0
 11
0.0
 21
2.5
 31
0.0
  0
LINE
  5
E2
330
DE
100
AcDbEntity
  8
FORMAT
 62
     0
100
AcDbLine
 10
0.0
 20
0.0
 30
0.0
 11
-2.5
 21
0.0
 31
0.0
  0
LINE
  5
E3
330
DE
100
AcDbEntity
  8
FORMAT
 62
     0
100
AcDbLine
 10
0.0
 20
0.0
 30
0.0
 11
0.0
 21
-2.5
 31
0.0
  0
LINE
  5
E4
330
DE
100
AcDbEntity
  8
FORMAT
 62
     0
100
AcDbLine
 10
0.0
 20
0.0
 30
0.0
 11
2.5
 21
0.0
 31
0.0
  0
LINE
  5
E5
330
DE
100
AcDbEntity
  8
FORMAT
 62
     0
100
AcDbLine
 10
0.0
 20
5.0
 30
0.0
 11
0.0
 21
50.0
 31
0.0
  0
LINE
  5
E6
330
DE
100
AcDbEntity
  8
FORMAT
 62
     0
100
AcDbLine
 10
-5.0
 20
0.0
 30
0.0
 11
-50.0
 21
0.0
 31
0.0
  0
LINE
  5
E7
330
DE
100
AcDbEntity
  8
FORMAT
 62
     0
100
AcDbLine
 10
0.0
 20
-5.0
 30
0.0
 11
0.0
 21
-50.0
 31
0.0
  0
LINE
  5
E8
330
DE
100
AcDbEntity
  8
FORMAT
 62
     0
100
AcDbLine
 10
5.0
 20
0.0
 30
0.0
 11
50.0
 21
0.0
 31
0.0
  0
ENDBLK
  5
E0
330
DE
100
AcDbEntity
  8
0
100
AcDbBlockEnd
  0
BLOCK
  5
FA
330
F9
100
AcDbEntity
  8
0
100
AcDbBlockBegin
  2
SW_CENTERMARKSYMBOL_3
 70
     0
 10
0.0
 20
0.0
 30
0.0
  3
SW_CENTERMARKSYMBOL_3
  1

  0
LINE
  5
FC
330
F9
100
AcDbEntity
  8
FORMAT
 62
     0
100
AcDbLine
 10
0.0
 20
0.0
 30
0.0
 11
0.0
 21
2.5
 31
0.0
  0
LINE
  5
FD
330
F9
100
AcDbEntity
  8
FORMAT
 62
     0
100
AcDbLine
 10
0.0
 20
0.0
 30
0.0
 11
-2.5
 21
0.0
 31
0.0
  0
LINE
  5
FE
330
F9
100
AcDbEntity
  8
FORMAT
 62
     0
100
AcDbLine
 10
0.0
 20
0.0
 30
0.0
 11
0.0
 21
-2.5
 31
0.0
  0
LINE
  5
FF
330
F9
100
AcDbEntity
  8
FORMAT
 62
     0
100
AcDbLine
 10
0.0
 20
0.0
 30
0.0
 11
2.5
 21
0.0
 31
0.0
  0
LINE
  5
100
330
F9
100
AcDbEntity
  8
FORMAT
 62
     0
100
AcDbLine
 10
0.0
 20
5.0
 30
0.0
 11
0.0
 21
50.0
 31
0.0
  0
LINE
  5
101
330
F9
100
AcDbEntity
  8
FORMAT
 62
     0
100
AcDbLine
 10
-5.0
 20
0.0
 30
0.0
 11
-50.0
 21
0.0
 31
0.0
  0
LINE
  5
102
330
F9
100
AcDbEntity
  8
FORMAT
 62
     0
100
AcDbLine
 10
0.0
 20
-5.0
 30
0.0
 11
0.0
 21
-50.0
 31
0.0
  0
LINE
  5
103
330
F9
100
AcDbEntity
  8
FORMAT
 62
     0
100
AcDbLine
 10
5.0
 20
0.0
 30
0.0
 11
50.0
 21
0.0
 31
0.0
  0
ENDBLK
  5
FB
330
F9
100
AcDbEntity
  8
0
100
AcDbBlockEnd
  0
ENDSEC
  0
SECTION
  2
ENTITIES
  0
LINE
  5
83
330
1F
100
AcDbEntity
  8
0
  6
Continuous
 62
     7
370
    25
100
AcDbLine
 10
71.6315875955
 20
82.4141225299
 30
0.0
 11
71.6315875955
 21
38.4141225299
 31
0.0
  0
LINE
  5
84
330
1F
100
AcDbEntity
  8
0
  6
Continuous
 62
     7
370
    25
100
AcDbLine
 10
166.6315875955
 20
38.4141225299
 30
0.0
 11
166.6315875955
 21
82.4141225299
 31
0.0
  0
ARC
  5
85
330
1F
100
AcDbEntity
  8
0
  6
Continuous
 62
     7
370
    25
100
AcDbCircle
 10
167.1315875955
 20
82.4141225299
 30
0.0
 40
0.4999999999999858
100
AcDbArc
 50
90.0
 51
180.0
  0
ARC
  5
86
330
1F
100
AcDbEntity
  8
0
  6
Continuous
 62
     7
370
    25
100
AcDbCircle
 10
167.1315875955
 20
82.4141225299
 30
0.0
 40
95.5
100
AcDbArc
 50
90.0
 51
180.0
  0
LINE
  5
87
330
1F
100
AcDbEntity
  8
0
  6
Continuous
 62
     7
370
    25
100
AcDbLine
 10
211.1315875955
 20
177.9141225299
 30
0.0
 11
167.1315875955
 21
177.9141225299
 31
0.0
  0
LINE
  5
88
330
1F
100
AcDbEntity
  8
0
  6
Continuous
 62
     7
370
    25
100
AcDbLine
 10
167.1315875955
 20
82.9141225299
 30
0.0
 11
211.1315875955
 21
82.9141225299
 31
0.0
  0
CIRCLE
  5
89
330
1F
100
AcDbEntity
  8
0
  6
Continuous
 62
     7
370
    25
100
AcDbCircle
 10
119.1315875955
 20
48.4141225299
 30
0.0
 40
5.0
  0
CIRCLE
  5
8A
330
1F
100
AcDbEntity
  8
0
  6
Continuous
 62
     7
370
    25
100
AcDbCircle
 10
119.1315875955
 20
48.4141225299
 30
0.0
 40
7.000000000000014
  0
CIRCLE
  5
8B
330
1F
100
AcDbEntity
  8
0
  6
Continuous
 62
     7
370
    25
100
AcDbCircle
 10
201.1315875955
 20
130.4141225299
 30
0.0
 40
7.0
  0
CIRCLE
  5
8C
330
1F
100
AcDbEntity
  8
0
  6
Continuous
 62
     7
370
    25
100
AcDbCircle
 10
201.1315875955
 20
130.4141225299
 30
0.0
 40
5.0
  0
LINE
  5
8D
330
1F
100
AcDbEntity
  8
0
  6
Continuous
 62
     7
370
    25
100
AcDbLine
 10
119.1315875955
 20
38.4141225299
 30
0.0
 11
166.6315875955
 21
38.4141225299
 31
0.0
  0
LINE
  5
8E
330
1F
100
AcDbEntity
  8
0
  6
Continuous
 62
     7
370
    25
100
AcDbLine
 10
71.6315875955
 20
38.4141225299
 30
0.0
 11
119.1315875955
 21
38.4141225299
 31
0.0
  0
LINE
  5
8F
330
1F
100
AcDbEntity
  8
0
  6
Continuous
 62
     7
370
    25
100
AcDbLine
 10
211.1315875955
 20
130.4141225299
 30
0.0
 11
211.1315875955
 21
82.9141225299
 31
0.0
  0
LINE
  5
90
330
1F
100
AcDbEntity
  8
0
  6
Continuous
 62
     7
370
    25
100
AcDbLine
 10
211.1315875955
 20
177.9141225299
 30
0.0
 11
211.1315875955
 21
130.4141225299
 31
0.0
  0
LINE
  5
91
330
1F
100
AcDbEntity
  8
0
  6
Continuous
 62
     1
370
    25
100
AcDbLine
 10
119.1315875955
 20
82.4141225299
 30
0.0
 11
166.6315875955
 21
82.4141225299
 31
0.0
  0
LINE
  5
92
330
1F
100
AcDbEntity
  8
0
  6
Continuous
 62
     1
370
    25
100
AcDbLine
 10
71.6315875955
 20
82.4141225299
 30
0.0
 11
119.1315875955
 21
82.4141225299
 31
0.0
  0
LINE
  5
93
330
1F
100
AcDbEntity
  8
0
  6
Continuous
 62
     1
370
    25
100
AcDbLine
 10
167.1315875955
 20
130.4141225299
 30
0.0
 11
167.1315875955
 21
82.9141225299
 31
0.0
  0
LINE
  5
94
330
1F
100
AcDbEntity
  8
0
  6
Continuous
 62
     1
370
    25
100
AcDbLine
 10
167.1315875955
 20
177.9141225299
 30
0.0
 11
167.1315875955
 21
130.4141225299
 31
0.0
  0
LINE
  5
95
330
1F
100
AcDbEntity
  8
0
  6
Continuous
 62
     7
370
    25
100
AcDbLine
 10
-81.8559224629
 20
137.4141225299
 30
0.0
 11
-97.37401712
 21
137.4141225299
 31
0.0
  0
LINE
  5
96
330
1F
100
AcDbEntity
  8
0
  6
Continuous
 62
     7
370
    25
100
AcDbLine
 10
-97.37401712
 20
123.4141225299
 30
0.0
 11
-81.8588458486
 21
123.4141225299
 31
0.0
  0
LINE
  5
97
330
1F
100
AcDbEntity
  8
0
  6
Continuous
 62
     7
370
    25
100
AcDbLine
 10
-82.37401712
 20
123.4141225299
 30
0.0
 11
-82.37401712
 21
82.4141225299
 31
0.0
  0
LINE
  5
98
330
1F
100
AcDbEntity
  8
0
  6
Continuous
 62
     7
370
    25
100
AcDbLine
 10
12.62598288
 20
82.4141225299
 30
0.0
 11
12.62598288
 21
130.4141225299
 31
0.0
  0
LINE
  5
99
330
1F
100
AcDbEntity
  8
0
  6
Continuous
 62
     7
370
    25
100
AcDbLine
 10
-82.37401712
 20
41.4141225299
 30
0.0
 11
-82.37401712
 21
38.4141225299
 31
0.0
  0
LINE
  5
9A
330
1F
100
AcDbEntity
  8
0
  6
Continuous
 62
     7
370
    25
100
AcDbLine
 10
-82.37401712
 20
82.4141225299
 30
0.0
 11
-82.37401712
 21
55.3940672491
 31
0.0
  0
LINE
  5
9B
330
1F
100
AcDbEntity
  8
0
  6
Continuous
 62
     7
370
    25
100
AcDbLine
 10
12.62598288
 20
38.4141225299
 30
0.0
 11
12.62598288
 21
82.4141225299
 31
0.0
  0
LINE
  5
9C
330
1F
100
AcDbEntity
  8
0
  6
Continuous
 62
     7
370
    25
100
AcDbLine
 10
-82.3710720991
 20
55.4141225299
 30
0.0
 11
-97.37401712
 21
55.4141225299
 31
0.0
  0
LINE
  5
9D
330
1F
100
AcDbEntity
  8
0
  6
Continuous
 62
     7
370
    25
100
AcDbLine
 10
-97.37401712
 20
41.4141225299
 30
0.0
 11
-82.37401712
 21
41.4141225299
 31
0.0
  0
CIRCLE
  5
9E
330
1F
100
AcDbEntity
  8
0
  6
Continuous
 62
     7
370
    25
100
AcDbCircle
 10
-34.87401712
 20
130.4141225299
 30
0.0
 40
47.50000000000001
  0
CIRCLE
  5
9F
330
1F
100
AcDbEntity
  8
0
  6
Continuous
 62
     7
370
    25
100
AcDbCircle
 10
-34.87401712
 20
130.4141225299
 30
0.0
 40
37.50000000000001
  0
LINE
  5
A0
330
1F
100
AcDbEntity
  8
0
  6
Continuous
 62
     7
370
    25
100
AcDbLine
 10
-97.37401712
 20
137.4141225299
 30
0.0
 11
-97.37401712
 21
123.4141225299
 31
0.0
  0
SPLINE
  5
A1
330
1F
100
AcDbEntity
  8
0
  6
Continuous
 62
     7
370
    25
100
AcDbSpline
210
0.0
220
0.0
230
1.0
 70
     8
 71
     3
 72
    26
 73
    22
 74
     0
 42
0.00000001
 43
0.00000001
 40
0.0
 40
0.0
 40
0.0
 40
0.0
 40
0.0525342928740724
 40
0.1066020916785315
 40
0.1591335643828948
 40
0.2131694025996697
 40
0.2660512289558805
 40
0.3204515209699048
 40
0.3735665740559324
 40
0.4282432127719721
 40
0.4809694228364618
 40
0.535249526141249
 40
0.5875705803636282
 40
0.6413986863443204
 40
0.6939299037379263
 40
0.7479559796806553
 40
0.8009830330923687
 40
0.85554509114261
 40
0.908585192691707
 40
0.9631913054878287
 40
0.9999999999999999
 40
0.9999999999999999
 40
0.9999999999999999
 40
0.9999999999999999
 10
-82.37401711998545
 20
41.41412252989835
 30
0.0
 10
-82.37127678124936
 20
41.4325959242227
 30
0.0
 10
-82.36571611172866
 20
41.4700819617734
 30
0.0
 10
-82.32214996035606
 20
41.77149221811308
 30
0.0
 10
-82.25726093981105
 20
42.24782937941319
 30
0.0
 10
-82.17650771068735
 20
42.89585177379217
 30
0.0
 10
-82.08807338412907
 20
43.70563016863878
 30
0.0
 10
-82.00288205242089
 20
44.64417940024325
 30
0.0
 10
-81.92941144697731
 20
45.70117964115537
 30
0.0
 10
-81.87748693651477
 20
46.82591011509874
 30
0.0
 10
-81.85222907905882
 20
48.0043775286053
 30
0.0
 10
-81.85673581710557
 20
49.17801938785998
 30
0.0
 10
-81.89022296163054
 20
50.33711153037037
 30
0.0
 10
-81.9481317134271
 20
51.42989209606528
 30
0.0
 10
-82.0250466865309
 20
52.44857411219552
 30
0.0
 10
-82.11149991633782
 20
53.34980756032565
 30
0.0
 10
-82.19918411570195
 20
54.12199240486677
 30
0.0
 10
-82.27721101835812
 20
54.73062633520674
 30
0.0
 10
-82.33648586426928
 20
55.15751418832723
 30
0.0
 10
-82.37045385288872
 20
55.39003186376287
 30
0.0
 10
-82.37089235980497
 20
55.39290882444537
 30
0.0
 10
-82.37106892712048
 20
55.3940672491033
 30
0.0
  0
LINE
  5
A2
330
1F
100
AcDbEntity
  8
0
  6
Continuous
 62
     7
370
    25
100
AcDbLine
 10
-82.37401712
 20
38.4141225299
 30
0.0
 11
12.62598288
 21
38.4141225299
 31
0.0
  0
LINE
  5
A3
330
1F
100
AcDbEntity
  8
0
  6
Continuous
 62
     7
370
    25
100
AcDbLine
 10
-97.37401712
 20
55.4141225299
 30
0.0
 11
-97.37401712
 21
41.4141225299
 31
0.0
  0
LINE
  5
A4
330
1F
100
AcDbEntity
  8
0
  6
Continuous
 62
     1
370
    25
100
AcDbLine
 10
-82.37401712
 20
82.4141225299
 30
0.0
 11
12.62598288
 21
82.4141225299
 31
0.0
  0
INSERT
  5
B0
330
1F
100
AcDbEntity
  8
FORMAT
 62
     7
100
AcDbBlockReference
  2
SW_CENTERMARKSYMBOL_0
 10
-34.87401712
 20
130.4141225299
 30
0.0
  0
LINE
  5
B1
330
1F
100
AcDbEntity
  8
0
  6
Continuous
 62
     7
370
    25
100
AcDbLine
 10
126.1315875955
 20
320.5497162773
 30
0.0
 11
126.1315875955
 21
336.0648875486
 31
0.0
  0
LINE
  5
B2
330
1F
100
AcDbEntity
  8
0
  6
Continuous
 62
     7
370
    25
100
AcDbLine
 10
112.1315875955
 20
336.0648875486
 30
0.0
 11
112.1315875955
 21
320.5467928916
 31
0.0
  0
LINE
  5
B3
330
1F
100
AcDbEntity
  8
0
  6
Continuous
 62
     7
370
    25
100
AcDbLine
 10
167.1315875955
 20
321.0648875486
 30
0.0
 11
126.1315875955
 21
321.0648875486
 31
0.0
  0
LINE
  5
B4
330
1F
100
AcDbEntity
  8
0
  6
Continuous
 62
     7
370
    25
100
AcDbLine
 10
119.1315875955
 20
226.0648875486
 30
0.0
 11
167.1315875955
 21
226.0648875486
 31
0.0
  0
LINE
  5
B5
330
1F
100
AcDbEntity
  8
0
  6
Continuous
 62
     7
370
    25
100
AcDbLine
 10
194.1315875955
 20
321.0648875486
 30
0.0
 11
167.1315875955
 21
321.0648875486
 31
0.0
  0
LINE
  5
B6
330
1F
100
AcDbEntity
  8
0
  6
Continuous
 62
     7
370
    25
100
AcDbLine
 10
211.1315875955
 20
321.0648875486
 30
0.0
 11
208.1115323147
 21
321.0648875486
 31
0.0
  0
LINE
  5
B7
330
1F
100
AcDbEntity
  8
0
  6
Continuous
 62
     7
370
    25
100
AcDbLine
 10
167.1315875955
 20
226.0648875486
 30
0.0
 11
211.1315875955
 21
226.0648875486
 31
0.0
  0
LINE
  5
B8
330
1F
100
AcDbEntity
  8
0
  6
Continuous
 62
     7
370
    25
100
AcDbLine
 10
208.1315875955
 20
321.0619425278
 30
0.0
 11
208.1315875955
 21
336.0648875486
 31
0.0
  0
LINE
  5
B9
330
1F
100
AcDbEntity
  8
0
  6
Continuous
 62
     7
370
    25
100
AcDbLine
 10
194.1315875955
 20
336.0648875486
 30
0.0
 11
194.1315875955
 21
321.0648875486
 31
0.0
  0
CIRCLE
  5
BA
330
1F
100
AcDbEntity
  8
0
  6
Continuous
 62
     7
370
    25
100
AcDbCircle
 10
119.1315875955
 20
273.5648875486
 30
0.0
 40
37.5
  0
CIRCLE
  5
BB
330
1F
100
AcDbEntity
  8
0
  6
Continuous
 62
     7
370
    25
100
AcDbCircle
 10
119.1315875955
 20
273.5648875486
 30
0.0
 40
47.5
  0
LINE
  5
BC
330
1F
100
AcDbEntity
  8
0
  6
Continuous
 62
     7
370
    25
100
AcDbLine
 10
126.1315875955
 20
336.0648875486
 30
0.0
 11
112.1315875955
 21
336.0648875486
 31
0.0
  0
SPLINE
  5
BD
330
1F
100
AcDbEntity
  8
0
  6
Continuous
 62
     7
370
    25
100
AcDbSpline
210
0.0
220
0.0
230
1.0
 70
     8
 71
     3
 72
    26
 73
    22
 74
     0
 42
0.00000001
 43
0.00000001
 40
0.0
 40
0.0
 40
0.0
 40
0.0
 40
0.0525342928740723
 40
0.1066020916785314
 40
0.1591335643828944
 40
0.2131694025996698
 40
0.2660512289558806
 40
0.3204515209699053
 40
0.3735665740559316
 40
0.4282432127719721
 40
0.480969422836461
 40
0.5352495261412487
 40
0.5875705803636284
 40
0.6413986863443197
 40
0.6939299037379264
 40
0.747955979680655
 40
0.8009830330923683
 40
0.8555450911426091
 40
0.9085851926917058
 40
0.9631913054878275
 40
1.0
 40
1.0
 40
1.0
 40
1.0
 10
194.1315875955083
 20
321.064887548648
 30
0.0
 10
194.1500609898327
 20
321.0621472099119
 30
0.0
 10
194.1875470273834
 20
321.0565865403912
 30
0.0
 10
194.488957283723
 20
321.0130203890185
 30
0.0
 10
194.9652944450232
 20
320.9481313684736
 30
0.0
 10
195.6133168394021
 20
320.8673781393499
 30
0.0
 10
196.4230952342487
 20
320.7789438127916
 30
0.0
 10
197.3616444658532
 20
320.6937524810834
 30
0.0
 10
198.4186447067653
 20
320.6202818756398
 30
0.0
 10
199.5433751807087
 20
320.5683573651773
 30
0.0
 10
200.7218425942153
 20
320.5430995077213
 30
0.0
 10
201.8954844534699
 20
320.5476062457681
 30
0.0
 10
203.0545765959804
 20
320.5810933902931
 30
0.0
 10
204.1473571616752
 20
320.6390021420896
 30
0.0
 10
205.1660391778055
 20
320.7159171151934
 30
0.0
 10
206.0672726259357
 20
320.8023703450003
 30
0.0
 10
206.8394574704768
 20
320.8900545443645
 30
0.0
 10
207.4480914008167
 20
320.9680814470206
 30
0.0
 10
207.8749792539372
 20
321.0273562929318
 30
0.0
 10
208.1074969293729
 20
321.0613242815512
 30
0.0
 10
208.1103738900554
 20
321.0617627884675
 30
0.0
 10
208.1115323147133
 20
321.061939355783
 30
0.0
  0
LINE
  5
BE
330
1F
100
AcDbEntity
  8
0
  6
Continuous
 62
     7
370
    25
100
AcDbLine
 10
211.1315875955
 20
321.0648875486
 30
0.0
 11
211.1315875955
 21
226.0648875486
 31
0.0
  0
LINE
  5
BF
330
1F
100
AcDbEntity
  8
0
  6
Continuous
 62
     7
370
    25
100
AcDbLine
 10
208.1315875955
 20
336.0648875486
 30
0.0
 11
194.1315875955
 21
336.0648875486
 31
0.0
  0
LINE
  5
C0
330
1F
100
AcDbEntity
  8
0
  6
Continuous
 62
     1
370
    25
100
AcDbLine
 10
167.1315875955
 20
321.0648875486
 30
0.0
 11
167.1315875955
 21
226.0648875486
 31
0.0
  0
INSERT
  5
CC
330
1F
100
AcDbEntity
  8
FORMAT
 62
     7
100
AcDbBlockReference
  2
SW_CENTERMARKSYMBOL_1
 10
119.1315875955
 20
273.5648875486
 30
0.0
  0
LINE
  5
CD
330
1F
100
AcDbEntity
  8
0
  6
Continuous
 62
     7
370
    25
100
AcDbLine
 10
272.353801039
 20
82.4141225299
 30
0.0
 11
272.353801039
 21
38.4141225299
 31
0.0
  0
LINE
  5
CE
330
1F
100
AcDbEntity
  8
0
  6
Continuous
 62
     7
370
    25
100
AcDbLine
 10
367.353801039
 20
55.3940672491
 30
0.0
 11
367.353801039
 21
82.4141225299
 31
0.0
  0
LINE
  5
CF
330
1F
100
AcDbEntity
  8
0
  6
Continuous
 62
     7
370
    25
100
AcDbLine
 10
367.353801039
 20
38.4141225299
 30
0.0
 11
367.353801039
 21
41.4141225299
 31
0.0
  0
LINE
  5
D0
330
1F
100
AcDbEntity
  8
0
  6
Continuous
 62
     7
370
    25
100
AcDbLine
 10
367.353801039
 20
82.4141225299
 30
0.0
 11
367.353801039
 21
130.4141225299
 31
0.0
  0
LINE
  5
D1
330
1F
100
AcDbEntity
  8
0
  6
Continuous
 62
     7
370
    25
100
AcDbLine
 10
272.353801039
 20
130.4141225299
 30
0.0
 11
272.353801039
 21
82.4141225299
 31
0.0
  0
LINE
  5
D2
330
1F
100
AcDbEntity
  8
0
  6
Continuous
 62
     7
370
    25
100
AcDbLine
 10
367.353801039
 20
41.4141225299
 30
0.0
 11
382.353801039
 21
41.4141225299
 31
0.0
  0
LINE
  5
D3
330
1F
100
AcDbEntity
  8
0
  6
Continuous
 62
     7
370
    25
100
AcDbLine
 10
382.353801039
 20
55.4141225299
 30
0.0
 11
367.3508560181
 21
55.4141225299
 31
0.0
  0
LINE
  5
D4
330
1F
100
AcDbEntity
  8
0
  6
Continuous
 62
     7
370
    25
100
AcDbLine
 10
367.353801039
 20
123.4141225299
 30
0.0
 11
382.353801039
 21
123.4141225299
 31
0.0
  0
LINE
  5
D5
330
1F
100
AcDbEntity
  8
0
  6
Continuous
 62
     7
370
    25
100
AcDbLine
 10
382.353801039
 20
137.4141225299
 30
0.0
 11
366.8357063819
 21
137.4141225299
 31
0.0
  0
LINE
  5
D6
330
1F
100
AcDbEntity
  8
0
  6
Continuous
 62
     7
370
    25
100
AcDbLine
 10
272.353801039
 20
38.4141225299
 30
0.0
 11
367.353801039
 21
38.4141225299
 31
0.0
  0
SPLINE
  5
D7
330
1F
100
AcDbEntity
  8
0
  6
Continuous
 62
     7
370
    25
100
AcDbSpline
210
0.0
220
0.0
230
1.0
 70
     8
 71
     3
 72
    26
 73
    22
 74
     0
 42
0.00000001
 43
0.00000001
 40
0.0
 40
0.0
 40
0.0
 40
0.0
 40
0.0157462028048458
 40
0.0698417494472299
 40
0.1221715240062798
 40
0.1759988559773392
 40
0.2287015860781888
 40
0.2829084575728335
 40
0.3360173457307973
 40
0.3906758000504849
 40
0.4435887154121341
 40
0.4980657705789737
 40
0.5504767374364246
 40
0.6044108188968195
 40
0.6568006317063363
 40
0.7106825623096324
 40
0.7635599824037859
 40
0.8179553096785115
 40
0.871073656968673
 40
0.9257531215792382
 40
1.0
 40
1.0
 40
1.0
 40
1.0
 10
367.3508528461541
 20
55.3940672491033
 30
0.0
 10
367.3516977351453
 20
55.39981550650304
 30
0.0
 10
367.3554452116619
 20
55.42531170759016
 30
0.0
 10
367.3328291982728
 20
55.27193938006727
 30
0.0
 10
367.2845984316438
 20
54.93252440532549
 30
0.0
 10
367.2138871843912
 20
54.40183904483613
 30
0.0
 10
367.1296951389068
 20
53.70150191940093
 30
0.0
 10
367.0416622578428
 20
52.85514468208899
 30
0.0
 10
366.9585279144439
 20
51.87238017349998
 30
0.0
 10
366.8911906225408
 20
50.79790436404492
 30
0.0
 10
366.8464746315993
 20
49.645577398033
 30
0.0
 10
366.8302554184427
 20
48.4731561634969
 30
0.0
 10
366.8437912762423
 20
47.29225707152344
 30
0.0
 10
366.8849539624962
 20
46.15795617183499
 30
0.0
 10
366.9497308165752
 20
45.07784332300702
 30
0.0
 10
367.0300392549133
 20
44.09770793316788
 30
0.0
 10
367.1183440719495
 20
43.22779852540675
 30
0.0
 10
367.2037768874926
 20
42.50632160263869
 30
0.0
 10
367.2770505679637
 20
41.94967579656634
 30
0.0
 10
367.3389606338868
 20
41.51339900900611
 30
0.0
 10
367.3483778156843
 20
41.45040176306536
 30
0.0
 10
367.3538010390191
 20
41.41412252989834
 30
0.0
  0
ARC
  5
D8
330
1F
100
AcDbEntity
  8
0
  6
Continuous
 62
     7
370
    25
100
AcDbCircle
 10
319.853801039
 20
130.4141225299
 30
0.0
 40
47.5
100
AcDbArc
 50
0.0
 51
180.0
  0
LINE
  5
D9
330
1F
100
AcDbEntity
  8
0
  6
Continuous
 62
     7
370
    25
100
AcDbLine
 10
382.353801039
 20
48.4141225299
 30
0.0
 11
382.353801039
 21
55.4141225299
 31
0.0
  0
LINE
  5
DA
330
1F
100
AcDbEntity
  8
0
  6
Continuous
 62
     7
370
    25
100
AcDbLine
 10
382.353801039
 20
41.4141225299
 30
0.0
 11
382.353801039
 21
48.4141225299
 31
0.0
  0
LINE
  5
DB
330
1F
100
AcDbEntity
  8
0
  6
Continuous
 62
     7
370
    25
100
AcDbLine
 10
382.353801039
 20
130.4141225299
 30
0.0
 11
382.353801039
 21
137.4141225299
 31
0.0
  0
LINE
  5
DC
330
1F
100
AcDbEntity
  8
0
  6
Continuous
 62
     7
370
    25
100
AcDbLine
 10
382.353801039
 20
123.4141225299
 30
0.0
 11
382.353801039
 21
130.4141225299
 31
0.0
  0
LINE
  5
DD
330
1F
100
AcDbEntity
  8
0
  6
Continuous
 62
     1
370
    25
100
AcDbLine
 10
272.353801039
 20
82.4141225299
 30
0.0
 11
367.353801039
 21
82.4141225299
 31
0.0
  0
INSERT
  5
E9
330
1F
100
AcDbEntity
  8
FORMAT
 62
     7
100
AcDbBlockReference
  2
SW_CENTERMARKSYMBOL_2
 10
319.853801039
 20
130.4141225299
 30
0.0
  0
LINE
  5
EA
330
1F
100
AcDbEntity
  8
0
  6
Continuous
 62
     7
370
    25
100
AcDbLine
 10
119.1315875955
 20
-132.9118429375
 30
0.0
 11
167.1315875955
 21
-132.9118429375
 31
0.0
  0
LINE
  5
EB
330
1F
100
AcDbEntity
  8
0
  6
Continuous
 62
     7
370
    25
100
AcDbLine
 10
167.1315875955
 20
-37.9118429375
 30
0.0
 11
119.1315875955
 21
-37.9118429375
 31
0.0
  0
LINE
  5
EC
330
1F
100
AcDbEntity
  8
0
  6
Continuous
 62
     7
370
    25
100
AcDbLine
 10
211.1315875955
 20
-37.9118429375
 30
0.0
 11
167.1315875955
 21
-37.9118429375
 31
0.0
  0
LINE
  5
ED
330
1F
100
AcDbEntity
  8
0
  6
Continuous
 62
     7
370
    25
100
AcDbLine
 10
208.1115323147
 20
-132.9118429375
 30
0.0
 11
211.1315875955
 21
-132.9118429375
 31
0.0
  0
LINE
  5
EE
330
1F
100
AcDbEntity
  8
0
  6
Continuous
 62
     7
370
    25
100
AcDbLine
 10
167.1315875955
 20
-132.9118429375
 30
0.0
 11
194.1315875955
 21
-132.9118429375
 31
0.0
  0
LINE
  5
EF
330
1F
100
AcDbEntity
  8
0
  6
Continuous
 62
     7
370
    25
100
AcDbLine
 10
194.1315875955
 20
-132.9118429375
 30
0.0
 11
194.1315875955
 21
-147.9118429375
 31
0.0
  0
LINE
  5
F0
330
1F
100
AcDbEntity
  8
0
  6
Continuous
 62
     7
370
    25
100
AcDbLine
 10
208.1315875955
 20
-147.9118429375
 30
0.0
 11
208.1315875955
 21
-132.9088979166
 31
0.0
  0
LINE
  5
F1
330
1F
100
AcDbEntity
  8
0
  6
Continuous
 62
     7
370
    25
100
AcDbLine
 10
112.1315875955
 20
-132.3937482804
 30
0.0
 11
112.1315875955
 21
-147.9118429375
 31
0.0
  0
LINE
  5
F2
330
1F
100
AcDbEntity
  8
0
  6
Continuous
 62
     7
370
    25
100
AcDbLine
 10
126.1315875955
 20
-147.9118429375
 30
0.0
 11
126.1315875955
 21
-132.9118429375
 31
0.0
  0
ARC
  5
F3
330
1F
100
AcDbEntity
  8
0
  6
Continuous
 62
     7
370
    25
100
AcDbCircle
 10
119.1315875955
 20
-85.4118429375
 30
0.0
 40
47.49999999999999
100
AcDbArc
 50
90.0
 51
270.0
  0
SPLINE
  5
F4
330
1F
100
AcDbEntity
  8
0
  6
Continuous
 62
     7
370
    25
100
AcDbSpline
210
0.0
220
0.0
230
1.0
 70
     8
 71
     3
 72
    26
 73
    22
 74
     0
 42
0.00000001
 43
0.00000001
 40
0.0
 40
0.0
 40
0.0
 40
0.0
 40
0.0157462028048447
 40
0.0698417494472298
 40
0.12217152400628
 40
0.175998855977339
 40
0.2287015860781881
 40
0.2829084575728325
 40
0.3360173457307963
 40
0.3906758000504844
 40
0.4435887154121334
 40
0.4980657705789734
 40
0.5504767374364236
 40
0.6044108188968194
 40
0.6568006317063363
 40
0.7106825623096323
 40
0.7635599824037855
 40
0.817955309678511
 40
0.871073656968673
 40
0.9257531215792388
 40
1.0
 40
1.0
 40
1.0
 40
1.0
 10
208.1115323147133
 20
-132.908894744622
 30
0.0
 10
208.117280572113
 20
-132.9097396336133
 30
0.0
 10
208.1427767732002
 20
-132.9134871101299
 30
0.0
 10
207.9894044456773
 20
-132.8908710967408
 30
0.0
 10
207.6499894709355
 20
-132.8426403301117
 30
0.0
 10
207.1193041104462
 20
-132.7719290828593
 30
0.0
 10
206.4189669850109
 20
-132.6877370373747
 30
0.0
 10
205.572609747699
 20
-132.5997041563108
 30
0.0
 10
204.5898452391099
 20
-132.5165698129118
 30
0.0
 10
203.5153694296549
 20
-132.4492325210088
 30
0.0
 10
202.363042463643
 20
-132.4045165300673
 30
0.0
 10
201.1906212291069
 20
-132.3882973169108
 30
0.0
 10
200.0097221371334
 20
-132.4018331747103
 30
0.0
 10
198.875421237445
 20
-132.4429958609642
 30
0.0
 10
197.795308388617
 20
-132.5077727150432
 30
0.0
 10
196.8151729987779
 20
-132.5880811533814
 30
0.0
 10
195.9452635910167
 20
-132.6763859704175
 30
0.0
 10
195.2237866682487
 20
-132.7618187859606
 30
0.0
 10
194.6671408621763
 20
-132.8350924664317
 30
0.0
 10
194.2308640746161
 20
-132.8970025323548
 30
0.0
 10
194.1678668286753
 20
-132.9064197141523
 30
0.0
 10
194.1315875955083
 20
-132.911842937487
 30
0.0
  0
LINE
  5
F5
330
1F
100
AcDbEntity
  8
0
  6
Continuous
 62
     7
370
    25
100
AcDbLine
 10
211.1315875955
 20
-37.9118429375
 30
0.0
 11
211.1315875955
 21
-132.9118429375
 31
0.0
  0
LINE
  5
F6
330
1F
100
AcDbEntity
  8
0
  6
Continuous
 62
     7
370
    25
100
AcDbLine
 10
194.1315875955
 20
-147.9118429375
 30
0.0
 11
208.1315875955
 21
-147.9118429375
 31
0.0
  0
LINE
  5
F7
330
1F
100
AcDbEntity
  8
0
  6
Continuous
 62
     7
370
    25
100
AcDbLine
 10
112.1315875955
 20
-147.9118429375
 30
0.0
 11
126.1315875955
 21
-147.9118429375
 31
0.0
  0
LINE
  5
F8
330
1F
100
AcDbEntity
  8
0
  6
Continuous
 62
     1
370
    25
100
AcDbLine
 10
167.1315875955
 20
-37.9118429375
 30
0.0
 11
167.1315875955
 21
-132.9118429375
 31
0.0
  0
INSERT
  5
104
330
1F
100
AcDbEntity
  8
FORMAT
 62
     7
100
AcDbBlockReference
  2
SW_CENTERMARKSYMBOL_3
 10
119.1315875955
 20
-85.4118429375
 30
0.0
  0
LINE
  5
105
330
1F
100
AcDbEntity
  8
0
  6
Continuous
 62
     7
370
    25
100
AcDbLine
 10
352.3464136116
 20
19.6866821547
 30
0.0
 11
328.5201241042
 21
5.9320579974
 31
0.0
  0
LINE
  5
106
330
1F
100
AcDbEntity
  8
0
  6
Continuous
 62
     7
370
    25
100
AcDbLine
 10
368.7298550397
 20
-80.5489382316
 30
0.0
 11
399.8425534119
 21
-62.5879597715
 31
0.0
  0
LINE
  5
107
330
1F
100
AcDbEntity
  8
0
  6
Continuous
 62
     7
370
    25
100
AcDbLine
 10
263.5406596426
 20
-106.6232770305
 30
0.0
 11
263.5406596426
 21
-134.1271666457
 31
0.0
  0
LINE
  5
108
330
1F
100
AcDbEntity
  8
0
  6
Continuous
 62
     7
370
    25
100
AcDbLine
 10
358.5406596426
 20
-134.1271666457
 30
0.0
 11
358.5406596426
 21
-98.1993709228
 31
0.0
  0
LINE
  5
109
330
1F
100
AcDbEntity
  8
0
  6
Continuous
 62
     7
370
    25
100
AcDbLine
 10
339.1183998466
 20
-0.186196358
 30
0.0
 11
328.32895744
 21
6.0424161636
 31
0.0
  0
LINE
  5
10A
330
1F
100
AcDbEntity
  8
0
  6
Continuous
 62
     7
370
    25
100
AcDbLine
 10
321.3295263115
 20
-6.0822679097
 30
0.0
 11
332.1191242887
 21
-12.3109702403
 31
0.0
  0
LINE
  5
10B
330
1F
100
AcDbEntity
  8
0
  6
Continuous
 62
     7
370
    25
100
AcDbLine
 10
281.1356793457
 20
-100.6152960437
 30
0.0
 11
270.3462013827
 21
-94.3866629958
 31
0.0
  0
LINE
  5
10C
330
1F
100
AcDbEntity
  8
0
  6
Continuous
 62
     7
370
    25
100
AcDbLine
 10
263.3467702542
 20
-106.5113470691
 30
0.0
 11
274.1361001768
 21
-112.7398946551
 31
0.0
  0
SPLINE
  5
10D
330
1F
100
AcDbEntity
  8
0
  6
Continuous
 62
     7
370
    25
100
AcDbSpline
210
0.0
220
0.0
230
1.0
 70
     8
 71
     3
 72
    35
 73
    31
 74
     0
 42
0.00000001
 43
0.00000001
 40
0.0
 40
0.0
 40
0.0
 40
0.0
 40
0.0350102157334879
 40
0.0720795617086974
 40
0.1081944801252347
 40
0.1436243819808976
 40
0.1786121801054921
 40
0.2133678503434449
 40
0.2480652521911529
 40
0.2828400268778584
 40
0.3177629660415951
 40
0.3528961138205638
 40
0.3882743171938862
 40
0.4239002210523745
 40
0.4597495381696654
 40
0.4957773846350805
 40
0.5319254649514951
 40
0.5681211973613025
 40
0.6042901848736623
 40
0.6403851702108905
 40
0.676380429591408
 40
0.7122791341247133
 40
0.748119741046677
 40
0.7839809669968093
 40
0.8199791384836905
 40
0.8562334683030844
 40
0.8929367069918555
 40
0.9303217593809275
 40
0.9686570134696809
 40
1.0
 40
1.0
 40
1.0
 40
1.0
 10
358.5406408052555
 20
-98.22533987044282
 30
0.0
 10
358.5408071549708
 20
-98.21726436957465
 30
0.0
 10
358.5411496382809
 20
-98.20063840623908
 30
0.0
 10
358.5550476096754
 20
-98.01451188781841
 30
0.0
 10
358.5912453637932
 20
-97.71011021411896
 30
0.0
 10
358.6580112622585
 20
-97.28556509869097
 30
0.0
 10
358.7625439105665
 20
-96.75135508678915
 30
0.0
 10
358.9112560558085
 20
-96.11412289404835
 30
0.0
 10
359.1095053426531
 20
-95.38266189101654
 30
0.0
 10
359.3614396404854
 20
-94.56684057534459
 30
0.0
 10
359.6698132513955
 20
-93.67800583100681
 30
0.0
 10
360.0358364484845
 20
-92.72879497380265
 30
0.0
 10
360.459159924627
 20
-91.7327900542742
 30
0.0
 10
360.9376891309195
 20
-90.70457864323922
 30
0.0
 10
361.4674709274839
 20
-89.6595845039484
 30
0.0
 10
362.0426758377715
 20
-88.6137228039137
 30
0.0
 10
362.6556097785889
 20
-87.58306695968182
 30
0.0
 10
363.2968175780139
 20
-86.58341706557235
 30
0.0
 10
363.9553997522112
 20
-85.6296426203502
 30
0.0
 10
364.61939935769
 20
-84.73512503417571
 30
0.0
 10
365.2761965038954
 20
-83.91134849920967
 30
0.0
 10
365.9127710044883
 20
-83.16775003549581
 30
0.0
 10
366.5160358513735
 20
-82.5115437967135
 30
0.0
 10
367.0730459934263
 20
-81.94771702133922
 30
0.0
 10
367.5711368923437
 20
-81.47916120584792
 30
0.0
 10
367.9978541702558
 20
-81.10676755113359
 30
0.0
 10
368.3428477935195
 20
-80.82845717573159
 30
0.0
 10
368.5912244251151
 20
-80.6435574009434
 30
0.0
 10
368.7376598142392
 20
-80.54473451332163
 30
0.0
 10
368.7444410812115
 20
-80.54077851316201
 30
0.0
 10
368.7474914618968
 20
-80.5389990069831
 30
0.0
  0
SPLINE
  5
10E
330
1F
100
AcDbEntity
  8
0
  6
Continuous
 62
     7
370
    25
100
AcDbSpline
210
0.0
220
0.0
230
1.0
 70
     8
 71
     3
 72
    41
 73
    37
 74
     0
 42
0.00000001
 43
0.00000001
 40
0.0
 40
0.0
 40
0.0
 40
0.0
 40
0.019463764463388
 40
0.0494635239144346
 40
0.0795306642543177
 40
0.1097345592882317
 40
0.1400274229077782
 40
0.1703621204632829
 40
0.2006933627180561
 40
0.2309932311783457
 40
0.2612417878381142
 40
0.2914268364786134
 40
0.3215431640436838
 40
0.3515915434081221
 40
0.3815776743070495
 40
0.4115111766861947
 40
0.4414046954594727
 40
0.4712731347892224
 40
0.5011330133992665
 40
0.5310019168559795
 40
0.5608947622682579
 40
0.5908270930274568
 40
0.6208170728924779
 40
0.6508821818433593
 40
0.6810386444754718
 40
0.7113007435259115
 40
0.7416799840266363
 40
0.7721840858436301
 40
0.8028158058361964
 40
0.8335716312188284
 40
0.8644404465867004
 40
0.8954023562015279
 40
0.9264279260704131
 40
0.9574649438032914
 40
0.9884618406634356
 40
0.9999999999999999
 40
0.9999999999999999
 40
0.9999999999999999
 40
0.9999999999999999
 10
321.2337152394416
 20
1.725703694566982
 30
0.0
 10
320.5823344502835
 20
1.343336422018532
 30
0.0
 10
318.9269717735245
 20
0.3716213786426892
 30
0.0
 10
316.3149861008882
 20
-1.294726577591387
 30
0.0
 10
313.405213293711
 20
-3.292657999961563
 30
0.0
 10
310.5467285814399
 20
-5.40928150772782
 30
0.0
 10
307.7413526274576
 20
-7.638914183799167
 30
0.0
 10
304.9957016393042
 20
-9.975652620333008
 30
0.0
 10
302.3151974041755
 20
-12.41266342974606
 30
0.0
 10
299.7043943701942
 20
-14.94354112945895
 30
0.0
 10
297.1667862992842
 20
-17.56236625965257
 30
0.0
 10
294.7052217707061
 20
-20.2636303603474
 30
0.0
 10
292.3220132521312
 20
-23.04226554949412
 30
0.0
 10
290.0190691178836
 20
-25.89365563237928
 30
0.0
 10
287.7980174591682
 20
-28.81361218889028
 30
0.0
 10
285.6603167966325
 20
-31.79833617258199
 30
0.0
 10
283.6073492778891
 20
-34.84437174479867
 30
0.0
 10
281.6404968376888
 20
-37.94855865538586
 30
0.0
 10
279.7612024757985
 20
-41.10798585339775
 30
0.0
 10
277.9710846644062
 20
-44.31983049029344
 30
0.0
 10
276.2719502775668
 20
-47.58132295725625
 30
0.0
 10
274.6657589747874
 20
-50.88980602553848
 30
0.0
 10
273.1546007460405
 20
-54.24281910724316
 30
0.0
 10
271.7407482449402
 20
-57.63803893227637
 30
0.0
 10
270.4267361442053
 20
-61.07311179478198
 30
0.0
 10
269.2153832706201
 20
-64.54557258768334
 30
0.0
 10
268.1098076382322
 20
-68.05274468076969
 30
0.0
 10
267.1134317495165
 20
-71.59161787594826
 30
0.0
 10
266.229965132361
 20
-75.1587054695396
 30
0.0
 10
265.4633811778944
 20
-78.74988274896694
 30
0.0
 10
264.8177853792608
 20
-82.36022972383728
 30
0.0
 10
264.2975208830291
 20
-85.98385984913196
 30
0.0
 10
263.9062394956389
 20
-89.6133968981857
 30
0.0
 10
263.6496599723816
 20
-93.23997404469911
 30
0.0
 10
263.5500142864486
 20
-96.10158269823052
 30
0.0
 10
263.5426557393724
 20
-97.75174422718463
 30
0.0
 10
263.5406596425938
 20
-98.1993709227764
 30
0.0
  0
LWPOLYLINE
  5
10F
330
1F
100
AcDbEntity
  8
0
  6
Continuous
 62
     7
370
    25
100
AcDbPolyline
 90
      111
 70
   128
 43
0.0
 10
342.5069114054
 20
-2.0609461526
 10
342.5616892449
 20
-4.3067975649
 10
342.7258440894
 20
-6.6085686239
 10
342.9988404999
 20
-8.9587514309
 10
343.379788019
 20
-11.3496801781
 10
343.8674440749
 20
-13.7735561528
 10
344.460218035
 20
-16.2224731754
 10
345.1561763939
 20
-18.6884433877
 10
345.95304908
 20
-21.1634233072
 10
346.8482368602
 20
-23.6393400641
 10
347.8388198181
 20
-26.1081177324
 10
348.9215668779
 20
-28.5617036724
 10
350.0929463439
 20
-30.992094797
 10
351.3491374196
 20
-33.3913636753
 10
352.6860426709
 20
-35.751684391
 10
354.0993013907
 20
-38.0653580686
 10
355.5843038229
 20
-40.3248379853
 10
357.1362061981
 20
-42.5227541874
 10
358.7499465334
 20
-44.6519375289
 10
360.4202611432
 20
-46.7054430565
 10
362.1417018085
 20
-48.6765726619
 10
363.9086535475
 20
-50.55889693
 10
365.7153529311
 20
-52.3462761104
 10
367.5559068813
 20
-54.0328801436
 10
369.4243118937
 20
-55.6132076779
 10
371.3144736194
 20
-57.0821040133
 10
373.220226744
 20
-58.4347779152
 10
375.1353550967
 20
-59.6668172427
 10
377.0536119269
 20
-60.7742033394
 10
378.9687402795
 20
-61.7533241421
 10
380.8744934041
 20
-62.6009859622
 10
382.7646551299
 20
-63.3144239031
 10
384.6330601422
 20
-63.8913108786
 10
386.4736140924
 20
-64.3297652031
 10
388.280313476
 20
-64.6283567298
 10
390.047265215
 20
-64.7861115153
 10
391.7687058803
 20
-64.8025149962
 10
393.4390204901
 20
-64.6775136677
 10
395.0527608254
 20
-64.4115152583
 10
396.6046632006
 20
-64.0053873994
 10
398.0896656328
 20
-63.4604547957
 10
399.5029243526
 20
-62.778494904
 10
400.8398296039
 20
-61.9617321359
 10
402.0960206796
 20
-61.0128306017
 10
403.2674001456
 20
-59.9348854209
 10
404.3501472055
 20
-58.7314126267
 10
405.3407301633
 20
-57.4063376973
 10
406.2359179436
 20
-55.9639827515
 10
407.0327906296
 20
-54.4090524514
 10
407.7287489885
 20
-52.7466186565
 10
408.3215229486
 20
-50.9821038803
 10
408.8091790045
 20
-49.1212636033
 10
409.1901265236
 20
-47.1701674995
 10
409.4631229341
 20
-45.135179639
 10
409.6272777786
 20
-43.0229377292
 10
409.6820556181
 20
-40.8403314642
 10
409.6272777786
 20
-38.5944800519
 10
409.4631229341
 20
-36.2927089929
 10
409.1901265236
 20
-33.9425261859
 10
408.8091790045
 20
-31.5515974387
 10
408.3215229486
 20
-29.127721464
 10
407.7287489885
 20
-26.6788044414
 10
407.0327906296
 20
-24.2128342292
 10
406.2359179436
 20
-21.7378543096
 10
405.3407301633
 20
-19.2619375528
 10
404.3501472055
 20
-16.7931598845
 10
403.2674001456
 20
-14.3395739444
 10
402.0960206796
 20
-11.9091828198
 10
400.8398296039
 20
-9.5099139415
 10
399.5029243526
 20
-7.1495932258
 10
398.0896656328
 20
-4.8359195482
 10
396.6046632006
 20
-2.5764396315
 10
395.0527608254
 20
-0.3785234295
 10
393.4390204901
 20
1.7506599121
 10
391.7687058803
 20
3.8041654397
 10
390.047265215
 20
5.7752950451
 10
388.280313476
 20
7.6576193132
 10
386.4736140924
 20
9.4449984936
 10
384.6330601422
 20
11.1316025268
 10
382.7646551299
 20
12.7119300611
 10
380.8744934041
 20
14.1808263964
 10
378.9687402795
 20
15.5335002984
 10
377.0536119269
 20
16.7655396258
 10
375.1353550966
 20
17.8729257226
 10
373.220226744
 20
18.8520465252
 10
371.3144736194
 20
19.6997083454
 10
369.4243118937
 20
20.4131462863
 10
367.5559068813
 20
20.9900332617
 10
365.7153529311
 20
21.4284875863
 10
363.9086535475
 20
21.727079113
 10
362.1417018085
 20
21.8848338985
 10
360.4202611432
 20
21.9012373794
 10
358.7499465334
 20
21.7762360509
 10
357.1362061981
 20
21.5102376415
 10
355.5843038229
 20
21.1041097826
 10
354.0993013907
 20
20.5591771788
 10
352.6860426709
 20
19.8772172872
 10
351.3491374196
 20
19.0604545191
 10
350.0929463439
 20
18.1115529849
 10
348.9215668779
 20
17.0336078041
 10
347.8388198181
 20
15.8301350099
 10
346.8482368602
 20
14.5050600804
 10
345.9530490799
 20
13.0627051346
 10
345.1561763939
 20
11.5077748346
 10
344.460218035
 20
9.8453410397
 10
343.8674440749
 20
8.0808262635
 10
343.379788019
 20
6.2199859864
 10
342.9988404999
 20
4.2688898827
 10
342.7258440894
 20
2.2339020222
 10
342.5616892449
 20
0.1216601124
 10
342.5069114054
 20
-2.0609461526
  0
LWPOLYLINE
  5
110
330
1F
100
AcDbEntity
  8
0
  6
Continuous
 62
     7
370
    25
100
AcDbPolyline
 90
       98
 70
   128
 43
0.0
 10
349.5779792173
 20
-6.1429867117
 10
349.6335889343
 20
-4.1930443263
 10
349.8001848391
 20
-2.3154862895
 10
350.0770681704
 20
-0.5181877323
 10
350.4630775833
 20
1.1913128506
 10
350.9565940202
 20
2.8058452195
 10
351.5555475017
 20
4.3186374647
 10
352.2574258087
 20
5.7233444098
 10
353.0592850197
 20
7.0140742256
 10
353.9577618584
 20
8.1854131427
 10
354.9490878009
 20
9.2324481588
 10
356.0291048814
 20
10.1507876449
 10
357.1932831332
 20
10.9365797663
 10
358.436739588
 20
11.5865286375
 10
359.7542587573
 20
12.0979081473
 10
361.1403145078
 20
12.4685733922
 10
362.5890932401
 20
12.6969696734
 10
364.0945182726
 20
12.7821390175
 10
365.6502753297
 20
12.7237241946
 10
367.2498390254
 20
12.5219702169
 10
368.8865002339
 20
12.1777233106
 10
370.5533942292
 20
11.6924273669
 10
372.2435294786
 20
11.0681178856
 10
373.9498169676
 20
10.3074134377
 10
375.6650999333
 20
9.413504682
 10
377.382183883
 20
8.3901409824
 10
379.0938667698
 20
7.241614682
 10
380.7929692009
 20
5.9727430991
 10
382.4723645502
 20
4.5888483223
 10
384.1250088499
 20
3.095734887
 10
385.7439703355
 20
1.49966543
 10
387.32245852
 20
-0.1926655787
 10
388.8538526753
 20
-1.9741599149
 10
390.3317296021
 20
-3.8373453721
 10
391.749890571
 20
-5.774407103
 10
393.1023873221
 20
-7.7772203975
 10
394.383547014
 20
-9.8373847608
 10
395.5879960176
 20
-11.9462591474
 10
396.7106824553
 20
-14.0949982053
 10
397.7468973899
 20
-16.2745893761
 10
398.6922945761
 20
-18.4758906971
 10
399.5429086893
 20
-20.6896691454
 10
400.2951719584
 20
-22.906639365
 10
400.9459291299
 20
-25.1175026123
 10
401.4924507019
 20
-27.3129857584
 10
401.9324443732
 20
-29.4838801841
 10
402.2640646572
 20
-31.6210804037
 10
402.4859206234
 20
-33.7156222568
 10
402.5970817306
 20
-35.758720507
 10
402.5970817306
 20
-37.74180569
 10
402.4859206234
 20
-39.6565600576
 10
402.2640646572
 20
-41.4949524645
 10
401.9324443732
 20
-43.249272054
 10
401.4924507019
 20
-44.9121606001
 10
400.9459291299
 20
-46.4766433704
 10
400.2951719584
 20
-47.9361583804
 10
399.5429086893
 20
-49.2845839169
 10
398.6922945761
 20
-50.5162642147
 10
397.7468973899
 20
-51.6260331785
 10
396.7106824553
 20
-52.6092360516
 10
395.5879960176
 20
-53.4617489395
 10
394.383547014
 20
-54.1799961068
 10
393.1023873221
 20
-54.7609649754
 10
391.749890571
 20
-55.2022187599
 10
390.3317296021
 20
-55.5019066886
 10
388.8538526753
 20
-55.6587717661
 10
387.32245852
 20
-55.6721560458
 10
385.7439703355
 20
-55.5420033895
 10
384.1250088499
 20
-55.2688597025
 10
382.4723645502
 20
-54.8538706443
 10
380.7929692009
 20
-54.2987768235
 10
379.0938667698
 20
-53.6059064962
 10
377.382183883
 20
-52.7781658016
 10
375.6650999333
 20
-51.8190265716
 10
373.9498169676
 20
-50.7325117696
 10
372.2435294786
 20
-49.5231786162
 10
370.5533942292
 20
-48.196099475
 10
368.8865002339
 20
-46.756840577
 10
367.2498390254
 20
-45.2114386743
 10
365.6502753297
 20
-43.5663757195
 10
364.0945182726
 20
-41.8285516783
 10
362.5890932401
 20
-40.0052555887
 10
361.1403145078
 20
-38.1041349882
 10
359.7542587573
 20
-36.1331638372
 10
358.436739588
 20
-34.1006090737
 10
357.1932831332
 20
-32.0149959387
 10
356.0291048814
 20
-29.8850722185
 10
354.9490878009
 20
-27.7197715534
 10
353.9577618584
 20
-25.5281759669
 10
353.0592850197
 20
-23.3194777726
 10
352.2574258087
 20
-21.1029410181
 10
351.5555475017
 20
-18.887862629
 10
350.9565940202
 20
-16.6835334139
 10
350.4630775833
 20
-14.4991990954
 10
350.0770681704
 20
-12.3440215309
 10
349.8001848391
 20
-10.2270402841
 10
349.6335889343
 20
-8.1571347099
 10
349.5779792173
 20
-6.1429867117
  0
SPLINE
  5
111
330
1F
100
AcDbEntity
  8
0
  6
Continuous
 62
     7
370
    25
100
AcDbSpline
210
0.0
220
0.0
230
1.0
 70
     8
 71
     3
 72
    27
 73
    23
 74
     0
 42
0.00000001
 43
0.00000001
 40
0.0
 40
0.0
 40
0.0
 40
0.0
 40
0.0167680862665211
 40
0.070409031075509
 40
0.1243061974102954
 40
0.1782006032658672
 40
0.2317039056390671
 40
0.2852065827367373
 40
0.3382799903684022
 40
0.3913557540282018
 40
0.4446337535443056
 40
0.4979133962574883
 40
0.5517088610363106
 40
0.6055026913318909
 40
0.6593268970131196
 40
0.7131486592619067
 40
0.7664719207394136
 40
0.8197957178197577
 40
0.8728706951759014
 40
0.9259482154084278
 40
0.9794004509378702
 40
1.0
 40
1.0
 40
1.0
 40
1.0
 10
332.1303335042321
 20
-12.2923302296746
 30
0.0
 10
332.195052247769
 20
-12.33653364962653
 30
0.0
 10
332.4668056221516
 20
-12.52214337989457
 30
0.0
 10
333.0441525304423
 20
-12.67601520206762
 30
0.0
 10
333.8349282763643
 20
-12.73106212685493
 30
0.0
 10
334.672361879595
 20
-12.58652310676742
 30
0.0
 10
335.5189361075001
 20
-12.25301151221003
 30
0.0
 10
336.3497131922776
 20
-11.74591027411723
 30
0.0
 10
337.1408799149268
 20
-11.07438822709336
 30
0.0
 10
337.8762853614122
 20
-10.26569628568724
 30
0.0
 10
338.537738085128
 20
-9.336815892708767
 30
0.0
 10
339.1167952712778
 20
-8.316802591991218
 30
0.0
 10
339.5971313303058
 20
-7.233890764209966
 30
0.0
 10
339.9734176456889
 20
-6.122058635498612
 30
0.0
 10
340.2336465623302
 20
-5.018512681571607
 30
0.0
 10
340.3773037396566
 20
-3.958897093109093
 30
0.0
 10
340.3990641780775
 20
-2.977332432916119
 30
0.0
 10
340.3037941977287
 20
-2.099548041114674
 30
0.0
 10
340.0915906877744
 20
-1.347445504437689
 30
0.0
 10
339.7620585624653
 20
-0.7457407683317541
 30
0.0
 10
339.430174165667
 20
-0.3625703652620771
 30
0.0
 10
339.1771527346344
 20
-0.2407449783018434
 30
0.0
 10
339.1067678355928
 20
-0.206855882319279
 30
0.0
  0
LWPOLYLINE
  5
112
330
1F
100
AcDbEntity
  8
0
  6
Continuous
 62
     7
370
    25
100
AcDbPolyline
 90
      111
 70
   128
 43
0.0
 10
277.4530875362
 20
-114.73747399
 10
279.425339927
 20
-113.6621620669
 10
281.5007149194
 20
-112.653602735
 10
283.6724430716
 20
-111.7150857053
 10
285.9334406576
 20
-110.8496722252
 10
288.2763327734
 20
-110.0601850937
 10
290.6934773918
 20
-109.3491994536
 10
293.1769902895
 20
-108.7190343923
 10
295.7187707636
 20
-108.1717453773
 10
298.3105280546
 20
-107.7091175516
 10
300.9438083888
 20
-107.3326599109
 10
303.6100225532
 20
-107.043600382
 10
306.3004739112
 20
-106.8428818168
 10
309.0063867699
 20
-106.7311589176
 10
311.7189350039
 20
-106.7087961013
 10
314.4292708446
 20
-106.7758663107
 10
317.1285537398
 20
-106.9321507768
 10
319.80797919
 20
-107.1771397322
 10
322.458807466
 20
-107.5100340737
 10
325.0723921172
 20
-107.9297479692
 10
327.6402081736
 20
-108.4349123992
 10
330.1538799528
 20
-109.0238796225
 10
332.6052083802
 20
-109.6947285502
 10
334.9861977319
 20
-110.4452710126
 10
337.2890817154
 20
-111.2730588962
 10
339.5063488019
 20
-112.1753921291
 10
341.630766727
 20
-113.1493274877
 10
343.6554060811
 20
-114.1916881973
 10
345.5736629113
 20
-115.299074294
 10
347.3792802626
 20
-116.4678737145
 10
349.0663685865
 20
-117.694274078
 10
350.6294249516
 20
-118.9742751215
 10
352.0633509928
 20
-120.3037017475
 10
353.3634695415
 20
-121.6782176428
 10
354.5255398813
 20
-123.0933394223
 10
355.5457715801
 20
-124.5444512527
 10
356.4208368542
 20
-126.0268199089
 10
357.1478814227
 20
-127.5356102125
 10
357.7245338172
 20
-129.0659008031
 10
358.1489131175
 20
-130.6127001909
 10
358.4196350866
 20
-132.1709630378
 10
358.5358166855
 20
-133.7356066143
 10
358.4970789542
 20
-135.3015273782
 10
358.303548247
 20
-136.8636176215
 10
357.9558558209
 20
-138.4167821304
 10
357.4551357762
 20
-139.9559548053
 10
356.8030213578
 20
-141.4761151847
 10
356.0016396273
 20
-142.9723048215
 10
355.0536045252
 20
-144.439643456
 10
353.9620083452
 20
-145.8733449347
 10
352.730411647
 20
-147.2687328212
 10
351.3628316431
 20
-148.6212556504
 10
349.8637290952
 20
-149.9265017739
 10
348.2379937642
 20
-151.1802137501
 10
346.4909284608
 20
-152.3783022312
 10
344.628231749
 20
-153.5168593015
 10
342.6559793582
 20
-154.5921712246
 10
340.5806043658
 20
-155.6007305565
 10
338.4088762136
 20
-156.5392475862
 10
336.1478786276
 20
-157.4046610663
 10
333.8049865118
 20
-158.1941481978
 10
331.3878418934
 20
-158.9051338379
 10
328.9043289957
 20
-159.5352988992
 10
326.3625485215
 20
-160.0825879142
 10
323.7707912306
 20
-160.5452157399
 10
321.1375108964
 20
-160.9216733806
 10
318.471296732
 20
-161.2107329095
 10
315.7808453739
 20
-161.4114514747
 10
313.0749325153
 20
-161.5231743739
 10
310.3623842813
 20
-161.5455371902
 10
307.6520484406
 20
-161.4784669808
 10
304.9527655453
 20
-161.3221825147
 10
302.2733400952
 20
-161.0771935593
 10
299.6225118191
 20
-160.7442992178
 10
297.008927168
 20
-160.3245853223
 10
294.4411111116
 20
-159.8194208923
 10
291.9274393323
 20
-159.230453669
 10
289.476110905
 20
-158.5596047413
 10
287.0951215533
 20
-157.8090622789
 10
284.7922375698
 20
-156.9812743953
 10
282.5749704833
 20
-156.0789411624
 10
280.4505525582
 20
-155.1050058038
 10
278.4259132041
 20
-154.0626450942
 10
276.5076563739
 20
-152.9552589975
 10
274.7020390226
 20
-151.786459577
 10
273.0149506987
 20
-150.5600592135
 10
271.4518943336
 20
-149.28005817
 10
270.0179682924
 20
-147.950631544
 10
268.7178497436
 20
-146.5761156487
 10
267.5557794039
 20
-145.1609938692
 10
266.5355477051
 20
-143.7098820388
 10
265.6604824309
 20
-142.2275133826
 10
264.9334378625
 20
-140.718723079
 10
264.3567854679
 20
-139.1884324884
 10
263.9324061676
 20
-137.6416331006
 10
263.6616841986
 20
-136.0833702537
 10
263.5455025996
 20
-134.5187266772
 10
263.584240331
 20
-132.9528059133
 10
263.7777710382
 20
-131.39071567
 10
264.1254634643
 20
-129.8375511611
 10
264.626183509
 20
-128.2983784862
 10
265.2782979274
 20
-126.7782181068
 10
266.0796796579
 20
-125.28202847
 10
267.0277147599
 20
-123.8146898355
 10
268.11931094
 20
-122.3809883568
 10
269.3509076381
 20
-120.9856004703
 10
270.7184876421
 20
-119.6330776411
 10
272.21759019
 20
-118.3278315176
 10
273.843325521
 20
-117.0741195414
 10
275.5903908244
 20
-115.8760310603
 10
277.4530875362
 20
-114.73747399
  0
LWPOLYLINE
  5
113
330
1F
100
AcDbEntity
  8
0
  6
Continuous
 62
     7
370
    25
100
AcDbPolyline
 90
       98
 70
   128
 43
0.0
 10
284.5241553481
 20
-118.8195145491
 10
282.8633565583
 20
-119.8424788954
 10
281.3207431699
 20
-120.9253581864
 10
279.9027854396
 20
-122.06361045
 10
278.6154307748
 20
-123.2524614607
 10
277.4640787886
 20
-124.4869247642
 10
276.4535586511
 20
-125.7618225923
 10
275.588108835
 20
-127.0718075806
 10
274.8713593376
 20
-128.4113851967
 10
274.3063164555
 20
-129.7749367866
 10
273.8953501748
 20
-131.156743141
 10
273.6401842308
 20
-132.5510084838
 10
273.5418888784
 20
-133.9518847818
 10
273.6008764022
 20
-135.3534962728
 10
273.8168993883
 20
-136.7499641112
 10
274.189051761
 20
-138.1354310255
 10
274.715772584
 20
-139.5040858861
 10
275.3948526071
 20
-140.8501880787
 10
276.2234435327
 20
-142.1680915831
 10
277.1980699625
 20
-143.4522686538
 10
278.3146439746
 20
-144.697333006
 10
279.5684822695
 20
-145.8980624071
 10
280.9543258136
 20
-147.0494205807
 10
282.4663618975
 20
-148.1465783305
 10
284.0982485165
 20
-149.1849337956
 10
285.8431409709
 20
-150.1601317523
 10
287.6937205753
 20
-151.0680818815
 10
289.6422253558
 20
-151.9049759249
 10
291.6804826063
 20
-152.6673036579
 10
293.7999431673
 20
-153.3518676131
 10
295.9917172848
 20
-153.9557964914
 10
298.2466118964
 20
-154.4765572052
 10
300.5551691905
 20
-154.9119655031
 10
302.9077062756
 20
-155.2601951313
 10
305.2943557935
 20
-155.5197854938
 10
307.7051073067
 20
-155.6896477784
 10
310.1298492855
 20
-155.7690695237
 10
312.5584115196
 20
-155.7577176072
 10
314.9806077748
 20
-155.6556396428
 10
317.3862785183
 20
-155.463263781
 10
319.765333531
 20
-155.1813969129
 10
322.1077942294
 20
-154.8112212863
 10
324.4038355192
 20
-154.3542895463
 10
326.6438270053
 20
-153.8125182234
 10
328.8183733851
 20
-153.1881796949
 10
330.9183538552
 20
-152.4838926535
 10
332.9349603678
 20
-151.7026111238
 10
334.8597345744
 20
-150.847612072
 10
336.6846033029
 20
-149.9224816614
 10
338.4019124199
 20
-148.9311002103
 10
340.004458934
 20
-147.8776259171
 10
341.4855212083
 20
-146.7664774191
 10
342.8388871528
 20
-145.6023152593
 10
344.0588802804
 20
-144.3900223383
 10
345.1403835161
 20
-143.1346834339
 10
346.0788606594
 20
-141.8415638737
 10
346.8703754109
 20
-140.5160874507
 10
347.5116078828
 20
-139.1638136735
 10
347.9998685233
 20
-137.7904144483
 10
348.3331093974
 20
-136.4016502887
 10
348.5099327773
 20
-135.0033461543
 10
348.5295970041
 20
-133.6013670186
 10
348.3920195993
 20
-132.2015932692
 10
348.0977776103
 20
-130.8098960437
 10
347.6481051903
 20
-129.432112604
 10
347.0448884217
 20
-128.0740218526
 10
346.2906574053
 20
-126.741320094
 10
345.388575648
 20
-125.4395971427
 10
344.3424267942
 20
-124.174312877
 10
343.1565987558
 20
-122.9507743389
 10
341.8360653077
 20
-121.7741134741
 10
340.386365226
 20
-120.6492656074
 10
338.8135790568
 20
-119.5809487415
 10
337.1243036118
 20
-118.5736437687
 10
335.3256242993
 20
-117.6315756761
 10
333.4250854054
 20
-116.7586958246
 10
331.4306584507
 20
-115.9586653757
 10
329.350708755
 20
-115.2348399351
 10
327.1939603501
 20
-114.5902554783
 10
324.9694593883
 20
-114.0276156165
 10
322.6865361999
 20
-113.5492802568
 10
320.3547661579
 20
-113.1572557039
 10
317.9839295163
 20
-112.8531862451
 10
315.5839703879
 20
-112.6383472533
 10
313.1649550354
 20
-112.5136398379
 10
310.7370296497
 20
-112.4795870653
 10
308.3103777937
 20
-112.5363317644
 10
305.8951776886
 20
-112.6836359284
 10
303.5015595231
 20
-112.9208817123
 10
301.1395629634
 20
-113.247074025
 10
298.8190950441
 20
-113.6608447024
 10
296.549888614
 20
-114.1604582467
 10
294.3414615136
 20
-114.7438191049
 10
292.2030766534
 20
-115.4084804588
 10
290.1437031628
 20
-116.1516544879
 10
288.17197877
 20
-116.9702240618
 10
286.2961735721
 20
-117.8607558155
 10
284.5241553481
 20
-118.8195145491
  0
SPLINE
  5
114
330
1F
100
AcDbEntity
  8
0
  6
Continuous
 62
     7
370
    25
100
AcDbSpline
210
0.0
220
0.0
230
1.0
 70
     8
 71
     3
 72
    22
 73
    18
 74
     0
 42
0.00000001
 43
0.00000001
 40
0.0
 40
0.0
 40
0.0
 40
0.0
 40
0.0710630971932441
 40
0.1421283421648677
 40
0.2131680393844807
 40
0.2842108562810193
 40
0.3557290301767795
 40
0.427246499962841
 40
0.4991055803468359
 40
0.5709609802869169
 40
0.6422949365502814
 40
0.7136280591571181
 40
0.7843888528056485
 40
0.8551527876585608
 40
0.9261863560310625
 40
0.9972221152169024
 40
1.0
 40
1.0
 40
1.0
 40
1.0
 10
277.4530875362328
 20
-112.2878515543028
 30
0.0
 10
277.7317470551529
 20
-112.1135430791142
 30
0.0
 10
278.2890745150703
 20
-111.7649208605177
 30
0.0
 10
279.1262537484575
 20
-111.0702731165699
 30
0.0
 10
279.9311503265135
 20
-110.2691546117921
 30
0.0
 10
280.6825792857748
 20
-109.3703126094135
 30
0.0
 10
281.351826628995
 20
-108.3956182020415
 30
0.0
 10
281.9192750746083
 20
-107.3683286577223
 30
0.0
 10
282.3567765513927
 20
-106.3145715952422
 30
0.0
 10
282.6517483610347
 20
-105.2646465490031
 30
0.0
 10
282.785719903048
 20
-104.2490699339593
 30
0.0
 10
282.7621690697036
 20
-103.2964456351341
 30
0.0
 10
282.5755298832054
 20
-102.4357461291572
 30
0.0
 10
282.2451129981616
 20
-101.6798047419107
 30
0.0
 10
281.762958512011
 20
-101.0798877991064
 30
0.0
 10
281.3820176724332
 20
-100.7224072676606
 30
0.0
 10
281.1429574367307
 20
-100.6223762788232
 30
0.0
 10
281.1339607017737
 20
-100.6186117368389
 30
0.0
  0
SPLINE
  5
115
330
1F
100
AcDbEntity
  8
0
  6
Continuous
 62
     7
370
    25
100
AcDbSpline
210
0.0
220
0.0
230
1.0
 70
     8
 71
     3
 72
    12
 73
     8
 74
     0
 42
0.00000001
 43
0.00000001
 40
0.0
 40
0.0
 40
0.0
 40
0.0
 40
0.0568593916172238
 40
0.2714960576103234
 40
0.4871888644865487
 40
0.702870872673924
 40
1.0
 40
1.0
 40
1.0
 40
1.0
 10
274.1463727920913
 20
-112.722989922813
 30
0.0
 10
274.1900544155624
 20
-112.754715316735
 30
0.0
 10
274.3986283771388
 20
-112.9061998671491
 30
0.0
 10
274.8704491327671
 20
-113.0087060549616
 30
0.0
 10
275.5550780892472
 20
-113.0111938098951
 30
0.0
 10
276.4118983998313
 20
-112.8200452640911
 30
0.0
 10
277.0711240338928
 20
-112.4830884869668
 30
0.0
 10
277.4530875362328
 20
-112.2878515543028
 30
0.0
  0
LWPOLYLINE
  5
116
330
1F
100
AcDbEntity
  8
0
  6
Continuous
 62
     7
370
    25
100
AcDbPolyline
 90
       43
 70
   128
 43
0.0
 10
319.8794944074
 20
-2.8773542644
 10
319.934778997
 20
-1.993545499
 10
320.0993977995
 20
-1.0656493324
 10
320.3696735028
 20
-0.1143934317
 10
320.7395685943
 20
0.8389727181
 10
321.200820229
 20
1.7731524927
 10
321.7431248075
 20
2.6672778595
 10
322.3543681416
 20
3.5013755355
 10
323.0208960653
 20
4.2568131567
 10
323.7278194462
 20
4.9167154952
 10
324.4593467842
 20
5.466341423
 10
325.1991369673
 20
5.8934132052
 10
325.9306643052
 20
6.1883907639
 10
326.6375876862
 20
6.3446847879
 10
327.3041156099
 20
6.3588039269
 10
327.915358944
 20
6.2304327827
 10
328.4576635225
 20
5.9624389545
 10
328.9189151571
 20
5.5608089817
 10
329.2888102487
 20
5.034514614
 10
329.559085952
 20
4.3953123982
 10
329.7237047544
 20
3.6574810553
 10
329.778989344
 20
2.8375025183
 10
329.7237047544
 20
1.9536937529
 10
329.559085952
 20
1.0257975863
 10
329.2888102487
 20
0.0745416856
 10
328.9189151571
 20
-0.8788244642
 10
328.4576635225
 20
-1.8130042388
 10
327.915358944
 20
-2.7071296057
 10
327.3041156099
 20
-3.5412272816
 10
326.6375876862
 20
-4.2966649029
 10
325.9306643052
 20
-4.9565672413
 10
325.1991369673
 20
-5.5061931691
 10
324.4593467842
 20
-5.9332649513
 10
323.7278194462
 20
-6.22824251
 10
323.0208960653
 20
-6.384536534
 10
322.3543681416
 20
-6.398655673
 10
321.7431248075
 20
-6.2702845288
 10
321.200820229
 20
-6.0022907006
 10
320.7395685943
 20
-5.6006607278
 10
320.3696735028
 20
-5.0743663602
 10
320.0993977995
 20
-4.4351641443
 10
319.934778997
 20
-3.6973328014
 10
319.8794944074
 20
-2.8773542644
  0
LWPOLYLINE
  5
117
330
1F
100
AcDbEntity
  8
0
  6
Continuous
 62
     7
370
    25
100
AcDbPolyline
 90
       36
 70
   128
 43
0.0
 10
321.2937079698
 20
-2.0609461526
 10
321.3505254542
 20
-1.2991511578
 10
321.5191517467
 20
-0.4962408098
 10
321.7941670594
 20
0.3219786922
 10
322.1667321741
 20
1.1292091001
 10
322.6248725413
 20
1.8995053645
 10
323.1538631526
 20
2.6081095296
 10
323.7367018146
 20
3.2322464745
 10
324.3546556131
 20
3.7518559243
 10
324.9878630046
 20
4.1502372036
 10
325.6159721825
 20
4.4145860105
 10
326.218795201
 20
4.5364059567
 10
326.7769568323
 20
4.5117816489
 10
327.2725173023
 20
4.3415045326
 10
327.6895488898
 20
4.0310474546
 10
328.0146478564
 20
3.5903887606
 10
328.2373652538
 20
3.0336915837
 10
328.3505427616
 20
2.3788486292
 10
328.3505427616
 20
1.6469070885
 10
328.2373652538
 20
0.861392165
 10
328.0146478564
 20
0.0475509546
 10
327.6895488898
 20
-0.7684590167
 10
327.2725173023
 20
-1.5604105167
 10
326.7769568323
 20
-2.3028495728
 10
326.218795201
 20
-2.9719135828
 10
325.6159721825
 20
-3.546098279
 10
324.9878630046
 20
-4.0069488926
 10
324.3546556131
 20
-4.3396533059
 10
323.7367018146
 20
-4.5335181251
 10
323.1538631526
 20
-4.5823123756
 10
322.6248725413
 20
-4.48446777
 10
322.1667321741
 20
-4.2431291144
 10
321.7941670594
 20
-3.8660532317
 10
321.5191517467
 20
-3.3653596511
 10
321.3505254542
 20
-2.7571410763
 10
321.2937079698
 20
-2.0609461526
  0
LWPOLYLINE
  5
118
330
1F
100
AcDbEntity
  8
0
  6
Continuous
 62
     7
370
    25
100
AcDbPolyline
 90
       43
 70
   128
 43
0.0
 10
261.8967383501
 20
-103.3064334238
 10
261.9520229397
 20
-102.4226246584
 10
262.1166417422
 20
-101.4947284918
 10
262.3869174455
 20
-100.5434725911
 10
262.756812537
 20
-99.5901064413
 10
263.2180641717
 20
-98.6559266667
 10
263.7603687502
 20
-97.7618012998
 10
264.3716120843
 20
-96.9277036239
 10
265.038140008
 20
-96.1722660026
 10
265.7450633889
 20
-95.5123636642
 10
266.4765907269
 20
-94.9627377364
 10
267.21638091
 20
-94.5356659542
 10
267.9479082479
 20
-94.2406883955
 10
268.6548316289
 20
-94.0843943715
 10
269.3213595526
 20
-94.0702752325
 10
269.9326028867
 20
-94.1986463767
 10
270.4749074652
 20
-94.4666402049
 10
270.9361590998
 20
-94.8682701777
 10
271.3060541914
 20
-95.3945645453
 10
271.5763298947
 20
-96.0337667612
 10
271.7409486971
 20
-96.7715981041
 10
271.7962332867
 20
-97.5915766411
 10
271.7409486971
 20
-98.4753854065
 10
271.5763298947
 20
-99.4032815731
 10
271.3060541914
 20
-100.3545374738
 10
270.9361590998
 20
-101.3079036236
 10
270.4749074652
 20
-102.2420833982
 10
269.9326028867
 20
-103.136208765
 10
269.3213595526
 20
-103.970306441
 10
268.6548316289
 20
-104.7257440622
 10
267.9479082479
 20
-105.3856464007
 10
267.21638091
 20
-105.9352723285
 10
266.4765907269
 20
-106.3623441107
 10
265.7450633889
 20
-106.6573216694
 10
265.038140008
 20
-106.8136156934
 10
264.3716120843
 20
-106.8277348324
 10
263.7603687502
 20
-106.6993636882
 10
263.2180641717
 20
-106.43136986
 10
262.756812537
 20
-106.0297398872
 10
262.3869174455
 20
-105.5034455195
 10
262.1166417422
 20
-104.8642433037
 10
261.9520229397
 20
-104.1264119608
 10
261.8967383501
 20
-103.3064334238
  0
LWPOLYLINE
  5
119
330
1F
100
AcDbEntity
  8
0
  6
Continuous
 62
     7
370
    25
100
AcDbPolyline
 90
       36
 70
   128
 43
0.0
 10
263.3109519125
 20
-102.490025312
 10
263.3677693969
 20
-101.7282303172
 10
263.5363956894
 20
-100.9253199692
 10
263.8114110021
 20
-100.1071004672
 10
264.1839761168
 20
-99.2998700593
 10
264.642116484
 20
-98.5295737949
 10
265.1711070953
 20
-97.8209696298
 10
265.7539457573
 20
-97.1968326849
 10
266.3718995558
 20
-96.6772232351
 10
267.0051069473
 20
-96.2788419557
 10
267.6332161252
 20
-96.0144931489
 10
268.2360391437
 20
-95.8926732027
 10
268.794200775
 20
-95.9172975105
 10
269.2897612451
 20
-96.0875746267
 10
269.7067928325
 20
-96.3980317048
 10
270.0318917991
 20
-96.8386903988
 10
270.2546091965
 20
-97.3953875757
 10
270.3677867043
 20
-98.0502305301
 10
270.3677867043
 20
-98.7821720708
 10
270.2546091965
 20
-99.5676869944
 10
270.0318917991
 20
-100.3815282048
 10
269.7067928325
 20
-101.197538176
 10
269.2897612451
 20
-101.9894896761
 10
268.794200775
 20
-102.7319287322
 10
268.2360391437
 20
-103.4009927422
 10
267.6332161252
 20
-103.9751774383
 10
267.0051069473
 20
-104.436028052
 10
266.3718995558
 20
-104.7687324652
 10
265.7539457573
 20
-104.9625972845
 10
265.1711070953
 20
-105.011391535
 10
264.642116484
 20
-104.9135469294
 10
264.1839761168
 20
-104.6722082738
 10
263.8114110021
 20
-104.2951323911
 10
263.5363956894
 20
-103.7944388105
 10
263.3677693969
 20
-103.1862202357
 10
263.3109519125
 20
-102.490025312
  0
LWPOLYLINE
  5
11A
330
1F
100
AcDbEntity
  8
0
  6
Continuous
 62
     1
370
    25
100
AcDbPolyline
 90
       43
 70
   128
 43
0.0
 10
311.3942130332
 20
-20.0219246127
 10
311.4489908727
 20
-22.267776025
 10
311.6131457172
 20
-24.569547084
 10
311.8861421277
 20
-26.919729891
 10
312.2670896468
 20
-29.3106586382
 10
312.7547457027
 20
-31.7345346129
 10
313.3475196628
 20
-34.1834516355
 10
314.0434780217
 20
-36.6494218478
 10
314.8403507077
 20
-39.1244017673
 10
315.735538488
 20
-41.6003185242
 10
316.7261214458
 20
-44.0690961925
 10
317.8088685057
 20
-46.5226821325
 10
318.9802479717
 20
-48.9530732571
 10
320.2364390474
 20
-51.3523421354
 10
321.5733442987
 20
-53.7126628511
 10
322.9866030185
 20
-56.0263365287
 10
324.4716054507
 20
-58.2858164454
 10
326.0235078259
 20
-60.4837326474
 10
327.6372481612
 20
-62.612915989
 10
329.307562771
 20
-64.6664215166
 10
331.0290034363
 20
-66.637551122
 10
332.7959551753
 20
-68.5198753901
 10
334.6026545589
 20
-70.3072545705
 10
336.4432085091
 20
-71.9938586037
 10
338.3116135214
 20
-73.574186138
 10
340.2017752472
 20
-75.0430824734
 10
342.1075283718
 20
-76.3957563753
 10
344.0226567244
 20
-77.6277957028
 10
345.9409135547
 20
-78.7351817995
 10
347.8560419073
 20
-79.7143026022
 10
349.7617950319
 20
-80.5619644223
 10
351.6519567576
 20
-81.2754023632
 10
353.52036177
 20
-81.8522893387
 10
355.3609157202
 20
-82.2907436632
 10
357.1676151038
 20
-82.5893351899
 10
358.9345668428
 20
-82.7470899754
 10
360.6560075081
 20
-82.7634934563
 10
362.3263221179
 20
-82.6384921278
 10
363.9400624532
 20
-82.3724937184
 10
365.4919648284
 20
-81.9663658595
 10
366.9769672606
 20
-81.4214332558
 10
368.3902259804
 20
-80.7394733641
 10
368.7298550397
 20
-80.5489382316
  0
LWPOLYLINE
  5
11B
330
1F
100
AcDbEntity
  8
0
  6
Continuous
 62
     1
370
    25
100
AcDbPolyline
 90
       15
 70
   128
 43
0.0
 10
321.147993632
 20
1.6758591741
 10
320.2364390474
 20
1.099476059
 10
318.9802479717
 20
0.1505745248
 10
317.8088685057
 20
-0.927370656
 10
316.7261214458
 20
-2.1308434502
 10
315.735538488
 20
-3.4559183797
 10
314.8403507077
 20
-4.8982733255
 10
314.0434780217
 20
-6.4532036255
 10
313.3475196628
 20
-8.1156374204
 10
312.7547457027
 20
-9.8801521966
 10
312.2670896468
 20
-11.7409924737
 10
311.8861421277
 20
-13.6920885774
 10
311.6131457172
 20
-15.7270764379
 10
311.4489908727
 20
-17.8393183477
 10
311.3942130332
 20
-20.0219246127
  0
LWPOLYLINE
  5
11C
330
1F
100
AcDbEntity
  8
0
  6
Continuous
 62
     1
370
    25
100
AcDbPolyline
 90
       43
 70
   128
 43
0.0
 10
277.4530875362
 20
-78.809678267
 10
279.425339927
 20
-77.7343663439
 10
281.5007149194
 20
-76.7258070121
 10
283.6724430716
 20
-75.7872899823
 10
285.9334406576
 20
-74.9218765023
 10
288.2763327734
 20
-74.1323893707
 10
290.6934773918
 20
-73.4214037306
 10
293.1769902895
 20
-72.7912386693
 10
295.7187707636
 20
-72.2439496543
 10
298.3105280546
 20
-71.7813218286
 10
300.9438083888
 20
-71.4048641879
 10
303.6100225532
 20
-71.115804659
 10
306.3004739112
 20
-70.9150860938
 10
309.0063867699
 20
-70.8033631946
 10
311.7189350039
 20
-70.7810003783
 10
314.4292708446
 20
-70.8480705878
 10
317.1285537398
 20
-71.0043550539
 10
319.80797919
 20
-71.2493440092
 10
322.458807466
 20
-71.5822383507
 10
325.0723921172
 20
-72.0019522462
 10
327.6402081736
 20
-72.5071166763
 10
330.1538799528
 20
-73.0960838995
 10
332.6052083802
 20
-73.7669328272
 10
334.9861977319
 20
-74.5174752896
 10
337.2890817154
 20
-75.3452631733
 10
339.5063488019
 20
-76.2475964061
 10
341.630766727
 20
-77.2215317647
 10
343.6554060811
 20
-78.2638924744
 10
345.5736629113
 20
-79.3712785711
 10
347.3792802626
 20
-80.5400779916
 10
349.0663685865
 20
-81.7664783551
 10
350.6294249516
 20
-83.0464793985
 10
352.0633509928
 20
-84.3759060246
 10
353.3634695415
 20
-85.7504219199
 10
354.5255398813
 20
-87.1655436993
 10
355.5457715801
 20
-88.6166555297
 10
356.4208368542
 20
-90.0990241859
 10
357.1478814227
 20
-91.6078144895
 10
357.7245338172
 20
-93.1381050801
 10
358.1489131175
 20
-94.684904468
 10
358.4196350866
 20
-96.2431673148
 10
358.5358166855
 20
-97.8078108913
 10
358.5406596426
 20
-98.1993709228
  0
LWPOLYLINE
  5
11D
330
1F
100
AcDbEntity
  8
0
  6
Continuous
 62
     1
370
    25
100
AcDbPolyline
 90
       15
 70
   128
 43
0.0
 10
263.5409539085
 20
-98.1028495678
 10
263.584240331
 20
-97.0250101903
 10
263.7777710382
 20
-95.4629199471
 10
264.1254634643
 20
-93.9097554381
 10
264.626183509
 20
-92.3705827632
 10
265.2782979274
 20
-90.8504223838
 10
266.0796796579
 20
-89.354232747
 10
267.0277147599
 20
-87.8868941125
 10
268.11931094
 20
-86.4531926338
 10
269.3509076381
 20
-85.0578047473
 10
270.7184876421
 20
-83.7052819181
 10
272.21759019
 20
-82.4000357946
 10
273.843325521
 20
-81.1463238184
 10
275.5903908244
 20
-79.9482353373
 10
277.4530875362
 20
-78.809678267
  0
ARC
  5
11E
330
1F
100
AcDbEntity
  8
0
  6
Continuous
 62
     1
370
    25
100
AcDbCircle
 10
311.3440901023
 20
-58.8302452764
 30
0.0
 40
60.53900518348063
100
AcDbArc
 50
9.7628504109
 51
50.2317730564
  0
ARC
  5
11F
330
1F
100
AcDbEntity
  8
0
  6
Continuous
 62
     1
370
    25
100
AcDbCircle
 10
311.0406596426
 20
-59.3420200494
 30
0.0
 40
60.5523707396493
100
AcDbArc
 50
249.7815693964
 51
290.2184306036
  0
ENDSEC
  0
SECTION
  2
OBJECTS
  0
DICTIONARY
  5
C
330
0
100
AcDbDictionary
281
     1
  3
ACAD_GROUP
350
D
  3
ACAD_LAYOUT
350
1A
  3
ACAD_MLINESTYLE
350
17
  3
ACAD_PLOTSETTINGS
350
19
  3
ACAD_PLOTSTYLENAME
350
E
  3
ACAD_SCALELIST
350
47
  3
DWGPROPS
350
120
  0
DICTIONARY
  5
D
102
{ACAD_REACTORS
330
C
102
}
330
C
100
AcDbDictionary
281
     1
  0
DICTIONARY
  5
1A
102
{ACAD_REACTORS
330
C
102
}
330
C
100
AcDbDictionary
281
     1
  3
Layout1
350
1E
  3
Layout2
350
26
  3
Model
350
22
  0
DICTIONARY
  5
17
102
{ACAD_REACTORS
330
C
102
}
330
C
100
AcDbDictionary
281
     1
  3
Standard
350
18
  0
DICTIONARY
  5
19
102
{ACAD_REACTORS
330
C
102
}
330
C
100
AcDbDictionary
281
     1
  0
ACDBDICTIONARYWDFLT
  5
E
102
{ACAD_REACTORS
330
C
102
}
330
C
100
AcDbDictionary
281
     1
  3
Normal
350
F
100
AcDbDictionaryWithDefault
340
F
  0
DICTIONARY
  5
47
102
{ACAD_REACTORS
330
C
102
}
330
C
100
AcDbDictionary
281
     1
  3
A0
350
48
  3
A1
350
49
  3
A2
350
4A
  3
A3
350
4B
  3
A4
350
4C
  3
A5
350
4D
  3
A6
350
4E
  3
A7
350
4F
  3
A8
350
50
  3
A9
350
51
  3
B0
350
52
  3
B1
350
53
  3
B2
350
54
  3
B3
350
55
  3
B4
350
56
  3
B5
350
57
  3
B6
350
58
  3
B7
350
59
  3
B8
350
5A
  3
B9
350
5B
  3
C0
350
5C
  3
C1
350
5D
  3
C2
350
5E
  3
C3
350
5F
  3
C4
350
60
  3
C5
350
61
  3
C6
350
62
  3
C7
350
63
  3
C8
350
64
  3
C9
350
65
  3
D0
350
66
  3
D1
350
67
  3
D2
350
68
  0
XRECORD
  5
120
102
{ACAD_REACTORS
330
C
102
}
330
C
100
AcDbXrecord
280
     1
  1
DWGPROPS COOKIE
  2

  3

  4

  6

  7

  8
b.kav
  9

300
=
301
=
302
=
303
=
304
=
305
=
306
=
307
=
308
=
309
=
 40
0.0
 41
2460665.489639271
 42
2460665.489639456
  1

 90
        0
  0
LAYOUT
  5
1E
102
{ACAD_REACTORS
330
1A
102
}
330
1A
100
AcDbPlotSettings
  1

  2
none_device
  4

  6

 40
0.0
 41
0.0
 42
0.0
 43
0.0
 44
0.0
 45
0.0
 46
0.0
 47
0.0
 48
0.0
 49
0.0
140
0.0
141
0.0
142
1.0
143
1.0
 70
   688
 72
     1
 73
     0
 74
     5
  7

 75
    16
147
1.0
148
0.0
149
0.0
100
AcDbLayout
  1
Layout1
 70
     1
 71
     1
 10
0.0
 20
0.0
 11
420.0
 21
297.0
 12
0.0
 22
0.0
 32
0.0
 14
1.0000000000E+20
 24
1.0000000000E+20
 34
1.0000000000E+20
 15
-1.0000000000E+20
 25
-1.0000000000E+20
 35
-1.0000000000E+20
146
0.0
 13
0.0
 23
0.0
 33
0.0
 16
1.0
 26
0.0
 36
0.0
 17
0.0
 27
1.0
 37
0.0
 76
     0
330
1B
  0
LAYOUT
  5
26
102
{ACAD_REACTORS
330
1A
102
}
330
1A
100
AcDbPlotSettings
  1

  2
none_device
  4

  6

 40
0.0
 41
0.0
 42
0.0
 43
0.0
 44
0.0
 45
0.0
 46
0.0
 47
0.0
 48
0.0
 49
0.0
140
0.0
141
0.0
142
1.0
143
1.0
 70
   688
 72
     1
 73
     0
 74
     5
  7

 75
    16
147
1.0
148
0.0
149
0.0
100
AcDbLayout
  1
Layout2
 70
     1
 71
     2
 10
0.0
 20
0.0
 11
0.0
 21
0.0
 12
0.0
 22
0.0
 32
0.0
 14
0.0
 24
0.0
 34
0.0
 15
0.0
 25
0.0
 35
0.0
146
0.0
 13
0.0
 23
0.0
 33
0.0
 16
1.0
 26
0.0
 36
0.0
 17
0.0
 27
1.0
 37
0.0
 76
     0
330
23
  0
LAYOUT
  5
22
102
{ACAD_REACTORS
330
1A
102
}
330
1A
100
AcDbPlotSettings
  1

  2
none_device
  4
Letter_(8.50_x_11.00_Inches)
  6

 40
6.35
 41
6.35
 42
6.35000508
 43
6.35000508
 44
215.9
 45
279.4
 46
0.0
 47
0.0
 48
0.0
 49
0.0
140
0.0
141
0.0
142
1.0
143
1.0
 70
  1712
 72
     1
 73
     0
 74
     0
  7

 75
     0
147
1.0
148
0.0
149
0.0
100
AcDbLayout
  1
Model
 70
     1
 71
     0
 10
0.0
 20
0.0
 11
279.4
 21
215.9
 12
0.0
 22
0.0
 32
0.0
 14
0.0
 24
0.0
 34
0.0
 15
279.4
 25
215.9
 35
0.0
146
0.0
 13
0.0
 23
0.0
 33
0.0
 16
1.0
 26
0.0
 36
0.0
 17
0.0
 27
1.0
 37
0.0
 76
     0
330
1F
331
29
  0
MLINESTYLE
  5
18
102
{ACAD_REACTORS
330
17
102
}
330
17
100
AcDbMlineStyle
  2
Standard
 70
     0
  3

 62
   256
 51
90.0
 52
90.0
 71
     2
 49
0.5
 62
   256
  6
BYLAYER
 49
-0.5
 62
   256
  6
BYLAYER
  0
ACDBPLACEHOLDER
  5
F
102
{ACAD_REACTORS
330
E
102
}
330
E
  0
SCALE
  5
48
102
{ACAD_REACTORS
330
47
102
}
330
47
100
AcDbScale
 70
     0
300
1:1
140
1.0
141
1.0
290
     1
  0
SCALE
  5
49
102
{ACAD_REACTORS
330
47
102
}
330
47
100
AcDbScale
 70
     0
300
1:2
140
1.0
141
2.0
290
     0
  0
SCALE
  5
4A
102
{ACAD_REACTORS
330
47
102
}
330
47
100
AcDbScale
 70
     0
300
1:4
140
1.0
141
4.0
290
     0
  0
SCALE
  5
4B
102
{ACAD_REACTORS
330
47
102
}
330
47
100
AcDbScale
 70
     0
300
1:5
140
1.0
141
5.0
290
     0
  0
SCALE
  5
4C
102
{ACAD_REACTORS
330
47
102
}
330
47
100
AcDbScale
 70
     0
300
1:8
140
1.0
141
8.0
290
     0
  0
SCALE
  5
4D
102
{ACAD_REACTORS
330
47
102
}
330
47
100
AcDbScale
 70
     0
300
1:10
140
1.0
141
10.0
290
     0
  0
SCALE
  5
4E
102
{ACAD_REACTORS
330
47
102
}
330
47
100
AcDbScale
 70
     0
300
1:16
140
1.0
141
16.0
290
     0
  0
SCALE
  5
4F
102
{ACAD_REACTORS
330
47
102
}
330
47
100
AcDbScale
 70
     0
300
1:20
140
1.0
141
20.0
290
     0
  0
SCALE
  5
50
102
{ACAD_REACTORS
330
47
102
}
330
47
100
AcDbScale
 70
     0
300
1:30
140
1.0
141
30.0
290
     0
  0
SCALE
  5
51
102
{ACAD_REACTORS
330
47
102
}
330
47
100
AcDbScale
 70
     0
300
1:40
140
1.0
141
40.0
290
     0
  0
SCALE
  5
52
102
{ACAD_REACTORS
330
47
102
}
330
47
100
AcDbScale
 70
     0
300
1:50
140
1.0
141
50.0
290
     0
  0
SCALE
  5
53
102
{ACAD_REACTORS
330
47
102
}
330
47
100
AcDbScale
 70
     0
300
1:100
140
1.0
141
100.0
290
     0
  0
SCALE
  5
54
102
{ACAD_REACTORS
330
47
102
}
330
47
100
AcDbScale
 70
     0
300
2:1
140
2.0
141
1.0
290
     0
  0
SCALE
  5
55
102
{ACAD_REACTORS
330
47
102
}
330
47
100
AcDbScale
 70
     0
300
4:1
140
4.0
141
1.0
290
     0
  0
SCALE
  5
56
102
{ACAD_REACTORS
330
47
102
}
330
47
100
AcDbScale
 70
     0
300
8:1
140
8.0
141
1.0
290
     0
  0
SCALE
  5
57
102
{ACAD_REACTORS
330
47
102
}
330
47
100
AcDbScale
 70
     0
300
10:1
140
10.0
141
1.0
290
     0
  0
SCALE
  5
58
102
{ACAD_REACTORS
330
47
102
}
330
47
100
AcDbScale
 70
     0
300
100:1
140
100.0
141
1.0
290
     0
  0
SCALE
  5
59
102
{ACAD_REACTORS
330
47
102
}
330
47
100
AcDbScale
 70
     0
300
1/128" = 1'-0"
140
0.0078125
141
12.0
290
     0
  0
SCALE
  5
5A
102
{ACAD_REACTORS
330
47
102
}
330
47
100
AcDbScale
 70
     0
300
1/64" = 1'-0"
140
0.015625
141
12.0
290
     0
  0
SCALE
  5
5B
102
{ACAD_REACTORS
330
47
102
}
330
47
100
AcDbScale
 70
     0
300
1/32" = 1'-0"
140
0.03125
141
12.0
290
     0
  0
SCALE
  5
5C
102
{ACAD_REACTORS
330
47
102
}
330
47
100
AcDbScale
 70
     0
300
1/16" = 1'-0"
140
0.0625
141
12.0
290
     0
  0
SCALE
  5
5D
102
{ACAD_REACTORS
330
47
102
}
330
47
100
AcDbScale
 70
     0
300
3/32" = 1'-0"
140
0.09375
141
12.0
290
     0
  0
SCALE
  5
5E
102
{ACAD_REACTORS
330
47
102
}
330
47
100
AcDbScale
 70
     0
300
1/8" = 1'-0"
140
0.125
141
12.0
290
     0
  0
SCALE
  5
5F
102
{ACAD_REACTORS
330
47
102
}
330
47
100
AcDbScale
 70
     0
300
3/16" = 1'-0"
140
0.1875
141
12.0
290
     0
  0
SCALE
  5
60
102
{ACAD_REACTORS
330
47
102
}
330
47
100
AcDbScale
 70
     0
300
1/4" = 1'-0"
140
0.25
141
12.0
290
     0
  0
SCALE
  5
61
102
{ACAD_REACTORS
330
47
102
}
330
47
100
AcDbScale
 70
     0
300
3/8" = 1'-0"
140
0.375
141
12.0
290
     0
  0
SCALE
  5
62
102
{ACAD_REACTORS
330
47
102
}
330
47
100
AcDbScale
 70
     0
300
1/2" = 1'-0"
140
0.5
141
12.0
290
     0
  0
SCALE
  5
63
102
{ACAD_REACTORS
330
47
102
}
330
47
100
AcDbScale
 70
     0
300
3/4" = 1'-0"
140
0.75
141
12.0
290
     0
  0
SCALE
  5
64
102
{ACAD_REACTORS
330
47
102
}
330
47
100
AcDbScale
 70
     0
300
1" = 1'-0"
140
1.0
141
12.0
290
     0
  0
SCALE
  5
65
102
{ACAD_REACTORS
330
47
102
}
330
47
100
AcDbScale
 70
     0
300
1-1/2" = 1'-0"
140
1.5
141
12.0
290
     0
  0
SCALE
  5
66
102
{ACAD_REACTORS
330
47
102
}
330
47
100
AcDbScale
 70
     0
300
3" = 1'-0"
140
3.0
141
12.0
290
     0
  0
SCALE
  5
67
102
{ACAD_REACTORS
330
47
102
}
330
47
100
AcDbScale
 70
     0
300
6" = 1'-0"
140
6.0
141
12.0
290
     0
  0
SCALE
  5
68
102
{ACAD_REACTORS
330
47
102
}
330
47
100
AcDbScale
 70
     0
300
1'-0" = 1'-0"
140
12.0
141
12.0
290
     0
  0
ENDSEC
  0
EOF
